  0
SECTION
  2
HEADER
  9
$ACADVER
  1
AC1015
  9
$ACADMAINTVER
 70
     6
  9
$DWGCODEPAGE
  3
ANSI_1254
  9
$INSBASE
 10
0.0
 20
0.0
 30
0.0
  9
$EXTMIN
 10
0.0
 20
0.0
 30
0.0
  9
$EXTMAX
 10
279.4
 20
215.9
 30
0.0
  9
$LIMMIN
 10
0.0
 20
0.0
  9
$LIMMAX
 10
279.4
 20
215.9
  9
$ORTHOMODE
 70
     0
  9
$REGENMODE
 70
     1
  9
$FILLMODE
 70
     1
  9
$QTEXTMODE
 70
     0
  9
$MIRRTEXT
 70
     1
  9
$LTSCALE
 40
1.0
  9
$ATTMODE
 70
     1
  9
$TEXTSIZE
 40
3.5
  9
$TRACEWID
 40
1.0
  9
$TEXTSTYLE
  7
Standard
  9
$CLAYER
  8
0
  9
$CELTYPE
  6
ByLayer
  9
$CECOLOR
 62
   256
  9
$CELTSCALE
 40
1.0
  9
$DISPSILH
 70
     0
  9
$DIMSCALE
 40
1.0
  9
$DIMASZ
 40
3.5
  9
$DIMEXO
 40
1.0
  9
$DIMDLI
 40
3.75
  9
$DIMRND
 40
0.0
  9
$DIMDLE
 40
0.0
  9
$DIMEXE
 40
1.0
  9
$DIMTP
 40
0.0
  9
$DIMTM
 40
0.0
  9
$DIMTXT
 40
3.5
  9
$DIMCEN
 40
2.5
  9
$DIMTSZ
 40
0.0
  9
$DIMTOL
 70
     0
  9
$DIMLIM
 70
     0
  9
$DIMTIH
 70
     1
  9
$DIMTOH
 70
     1
  9
$DIMSE1
 70
     0
  9
$DIMSE2
 70
     0
  9
$DIMTAD
 70
     1
  9
$DIMZIN
 70
     0
  9
$DIMBLK
  1

  9
$DIMASO
 70
     1
  9
$DIMSHO
 70
     1
  9
$DIMPOST
  1

  9
$DIMAPOST
  1

  9
$DIMALT
 70
     0
  9
$DIMALTD
 70
     3
  9
$DIMALTF
 40
0.0393700787
  9
$DIMLFAC
 40
1.0
  9
$DIMTOFL
 70
     1
  9
$DIMTVP
 40
0.0
  9
$DIMTIX
 70
     0
  9
$DIMSOXD
 70
     0
  9
$DIMSAH
 70
     0
  9
$DIMBLK1
  1

  9
$DIMBLK2
  1

  9
$DIMSTYLE
  2
ISO-25
  9
$DIMCLRD
 70
     0
  9
$DIMCLRE
 70
     0
  9
$DIMCLRT
 70
     0
  9
$DIMTFAC
 40
1.0
  9
$DIMGAP
 40
1.524
  9
$DIMJUST
 70
     0
  9
$DIMSD1
 70
     0
  9
$DIMSD2
 70
     0
  9
$DIMTOLJ
 70
     0
  9
$DIMTZIN
 70
     0
  9
$DIMALTZ
 70
     0
  9
$DIMALTTZ
 70
     0
  9
$DIMUPT
 70
     0
  9
$DIMDEC
 70
     2
  9
$DIMTDEC
 70
     2
  9
$DIMALTU
 70
     2
  9
$DIMALTTD
 70
     3
  9
$DIMTXSTY
  7
Standard
  9
$DIMAUNIT
 70
     0
  9
$DIMADEC
 70
     2
  9
$DIMALTRND
 40
0.0
  9
$DIMAZIN
 70
     0
  9
$DIMDSEP
 70
    44
  9
$DIMATFIT
 70
     3
  9
$DIMFRAC
 70
     0
  9
$DIMLDRBLK
  1

  9
$DIMLUNIT
 70
     2
  9
$DIMLWD
 70
    -2
  9
$DIMLWE
 70
    -2
  9
$DIMTMOVE
 70
     0
  9
$LUNITS
 70
     2
  9
$LUPREC
 70
     2
  9
$SKETCHINC
 40
1.0
  9
$FILLETRAD
 40
10.0
  9
$AUNITS
 70
     0
  9
$AUPREC
 70
     2
  9
$MENU
  1
.
  9
$ELEVATION
 40
0.0
  9
$PELEVATION
 40
0.0
  9
$THICKNESS
 40
0.0
  9
$LIMCHECK
 70
     0
  9
$CHAMFERA
 40
0.0
  9
$CHAMFERB
 40
0.0
  9
$CHAMFERC
 40
0.0
  9
$CHAMFERD
 40
0.0
  9
$SKPOLY
 70
     0
  9
$TDCREATE
 40
2460390.355092292
  9
$TDUCREATE
 40
2460390.230092292
  9
$TDUPDATE
 40
2460390.355092488
  9
$TDUUPDATE
 40
2460390.230092488
  9
$TDINDWG
 40
0.0000000116
  9
$TDUSRTIMER
 40
0.0000000116
  9
$USRTIMER
 70
     1
  9
$ANGBASE
 50
0.0
  9
$ANGDIR
 70
     0
  9
$PDMODE
 70
     0
  9
$PDSIZE
 40
-1.0
  9
$PLINEWID
 40
0.0
  9
$SPLFRAME
 70
     0
  9
$SPLINETYPE
 70
     6
  9
$SPLINESEGS
 70
     8
  9
$HANDSEED
  5
10F
  9
$SURFTAB1
 70
     6
  9
$SURFTAB2
 70
     6
  9
$SURFTYPE
 70
     6
  9
$SURFU
 70
     6
  9
$SURFV
 70
     6
  9
$UCSBASE
  2

  9
$UCSNAME
  2

  9
$UCSORG
 10
0.0
 20
0.0
 30
0.0
  9
$UCSXDIR
 10
1.0
 20
0.0
 30
0.0
  9
$UCSYDIR
 10
0.0
 20
1.0
 30
0.0
  9
$UCSORTHOREF
  2

  9
$UCSORTHOVIEW
 70
     0
  9
$UCSORGTOP
 10
0.0
 20
0.0
 30
0.0
  9
$UCSORGBOTTOM
 10
0.0
 20
0.0
 30
0.0
  9
$UCSORGLEFT
 10
0.0
 20
0.0
 30
0.0
  9
$UCSORGRIGHT
 10
0.0
 20
0.0
 30
0.0
  9
$UCSORGFRONT
 10
0.0
 20
0.0
 30
0.0
  9
$UCSORGBACK
 10
0.0
 20
0.0
 30
0.0
  9
$PUCSBASE
  2

  9
$PUCSNAME
  2

  9
$PUCSORG
 10
0.0
 20
0.0
 30
0.0
  9
$PUCSXDIR
 10
1.0
 20
0.0
 30
0.0
  9
$PUCSYDIR
 10
0.0
 20
1.0
 30
0.0
  9
$PUCSORTHOREF
  2

  9
$PUCSORTHOVIEW
 70
     0
  9
$PUCSORGTOP
 10
0.0
 20
0.0
 30
0.0
  9
$PUCSORGBOTTOM
 10
0.0
 20
0.0
 30
0.0
  9
$PUCSORGLEFT
 10
0.0
 20
0.0
 30
0.0
  9
$PUCSORGRIGHT
 10
0.0
 20
0.0
 30
0.0
  9
$PUCSORGFRONT
 10
0.0
 20
0.0
 30
0.0
  9
$PUCSORGBACK
 10
0.0
 20
0.0
 30
0.0
  9
$USERI1
 70
     0
  9
$USERI2
 70
     0
  9
$USERI3
 70
     0
  9
$USERI4
 70
     0
  9
$USERI5
 70
     0
  9
$USERR1
 40
0.0
  9
$USERR2
 40
0.0
  9
$USERR3
 40
0.0
  9
$USERR4
 40
0.0
  9
$USERR5
 40
0.0
  9
$WORLDVIEW
 70
     1
  9
$SHADEDGE
 70
     3
  9
$SHADEDIF
 70
    70
  9
$TILEMODE
 70
     1
  9
$MAXACTVP
 70
    64
  9
$PINSBASE
 10
0.0
 20
0.0
 30
0.0
  9
$PLIMCHECK
 70
     0
  9
$PEXTMIN
 10
1.0000000000E+20
 20
1.0000000000E+20
 30
1.0000000000E+20
  9
$PEXTMAX
 10
-1.0000000000E+20
 20
-1.0000000000E+20
 30
-1.0000000000E+20
  9
$PLIMMIN
 10
0.0
 20
0.0
  9
$PLIMMAX
 10
420.0
 20
297.0
  9
$UNITMODE
 70
     0
  9
$VISRETAIN
 70
     1
  9
$PLINEGEN
 70
     0
  9
$PSLTSCALE
 70
     1
  9
$TREEDEPTH
 70
  3020
  9
$CMLSTYLE
  2
Standard
  9
$CMLJUST
 70
     0
  9
$CMLSCALE
 40
20.0
  9
$PROXYGRAPHICS
 70
     1
  9
$MEASUREMENT
 70
     1
  9
$CELWEIGHT
370
    -1
  9
$ENDCAPS
280
     0
  9
$JOINSTYLE
280
     0
  9
$LWDISPLAY
290
     1
  9
$INSUNITS
 70
     4
  9
$HYPERLINKBASE
  1

  9
$STYLESHEET
  1

  9
$XEDIT
290
     1
  9
$CEPSNTYPE
380
     0
  9
$PSTYLEMODE
290
     1
  9
$FINGERPRINTGUID
  2
{9127a0ee-25de-47d5-aa39-7246233f1a83}
  9
$VERSIONGUID
  2
{FAEB1C32-E019-11D5-929B-00C0DF256EC4}
  9
$EXTNAMES
290
     1
  9
$PSVPSCALE
 40
0.0
  9
$OLESTARTUP
290
     0
  0
ENDSEC
  0
SECTION
  2
CLASSES
  0
CLASS
  1
ACDBDICTIONARYWDFLT
  2
AcDbDictionaryWithDefault
  3
ObjectDBX Classes
 90
        0
280
     0
281
     0
  0
CLASS
  1
VISUALSTYLE
  2
AcDbVisualStyle
  3
ObjectDBX Classes
 90
     4095
280
     0
281
     0
  0
CLASS
  1
MATERIAL
  2
AcDbMaterial
  3
ObjectDBX Classes
 90
     1153
280
     0
281
     0
  0
CLASS
  1
SCALE
  2
AcDbScale
  3
ObjectDBX Classes
 90
     1153
280
     0
281
     0
  0
CLASS
  1
TABLESTYLE
  2
AcDbTableStyle
  3
ObjectDBX Classes
 90
     4095
280
     0
281
     0
  0
CLASS
  1
MLEADERSTYLE
  2
AcDbMLeaderStyle
  3
ACDB_MLEADERSTYLE_CLASS
 90
     4095
280
     0
281
     0
  0
CLASS
  1
SUN
  2
AcDbSun
  3
SCENEOE
 90
     1153
280
     0
281
     0
  0
CLASS
  1
ACDBPLACEHOLDER
  2
AcDbPlaceHolder
  3
ObjectDBX Classes
 90
        0
280
     0
281
     0
  0
CLASS
  1
LAYOUT
  2
AcDbLayout
  3
ObjectDBX Classes
 90
        0
280
     0
281
     0
  0
ENDSEC
  0
SECTION
  2
TABLES
  0
TABLE
  2
VPORT
  5
8
330
0
100
AcDbSymbolTable
 70
     1
  0
VPORT
  5
29
330
8
100
AcDbSymbolTableRecord
100
AcDbViewportTableRecord
  2
*Active
 70
     0
 10
0.0
 20
0.0
 11
1.0
 21
1.0
 12
139.7
 22
107.95
 13
0.0
 23
0.0
 14
10.0
 24
10.0
 15
10.0
 25
10.0
 16
0.0
 26
0.0
 36
1.0
 17
0.0
 27
0.0
 37
0.0
 40
215.9
 41
1.2941176471
 42
50.0
 43
0.0
 44
0.0
 50
0.0
 51
0.0
 71
     0
 72
  2000
 73
     1
 74
     3
 75
     0
 76
     0
 77
     0
 78
     0
281
     0
 65
     1
110
0.0
120
0.0
130
0.0
111
1.0
121
0.0
131
0.0
112
0.0
122
1.0
132
0.0
 79
     0
146
0.0
  0
ENDTAB
  0
TABLE
  2
LTYPE
  5
5
330
0
100
AcDbSymbolTable
 70
     6
  0
LTYPE
  5
14
330
5
100
AcDbSymbolTableRecord
100
AcDbLinetypeTableRecord
  2
ByBlock
 70
     0
  3

 72
    65
 73
     0
 40
0.0
  0
LTYPE
  5
15
330
5
100
AcDbSymbolTableRecord
100
AcDbLinetypeTableRecord
  2
ByLayer
 70
     0
  3

 72
    65
 73
     0
 40
0.0
  0
LTYPE
  5
16
330
5
100
AcDbSymbolTableRecord
100
AcDbLinetypeTableRecord
  2
Continuous
 70
     0
  3
Solid line
 72
    65
 73
     0
 40
0.0
  0
LTYPE
  5
6E
330
5
100
AcDbSymbolTableRecord
100
AcDbLinetypeTableRecord
  2
HIDDEN
 70
     0
  3
Hidden __ __ __ __ __ __ __ __ __ __ __ __ __ __
 72
    65
 73
     2
 40
1.905
 49
1.27
 74
     0
 49
-0.635
 74
     0
  0
LTYPE
  5
6F
330
5
100
AcDbSymbolTableRecord
100
AcDbLinetypeTableRecord
  2
PHANTOM
 70
     0
  3
Phantom ______  __  __  ______  __  __  ______
 72
    65
 73
     6
 40
12.7
 49
6.35
 74
     0
 49
-1.27
 74
     0
 49
1.27
 74
     0
 49
-1.27
 74
     0
 49
1.27
 74
     0
 49
-1.27
 74
     0
  0
LTYPE
  5
70
330
5
100
AcDbSymbolTableRecord
100
AcDbLinetypeTableRecord
  2
CENTER
 70
     0
  3
Center ____ _ ____ _ ____ _ ____ _ ____ _ ____
 72
    65
 73
     4
 40
10.16
 49
6.35
 74
     0
 49
-1.27
 74
     0
 49
1.27
 74
     0
 49
-1.27
 74
     0
  0
LTYPE
  5
71
330
5
100
AcDbSymbolTableRecord
100
AcDbLinetypeTableRecord
  2
CENTERX2
 70
     0
  3
Center (2x) ________  __  ________  __  _____
 72
    65
 73
     4
 40
20.32
 49
12.7
 74
     0
 49
-2.54
 74
     0
 49
2.54
 74
     0
 49
-2.54
 74
     0
  0
LTYPE
  5
72
330
5
100
AcDbSymbolTableRecord
100
AcDbLinetypeTableRecord
  2
DOT2
 70
     0
  3
Dot (.5x) ........................................
 72
    65
 73
     2
 40
0.635
 49
0.0
 74
     0
 49
-0.635
 74
     0
  0
ENDTAB
  0
TABLE
  2
LAYER
  5
2
330
0
100
AcDbSymbolTable
 70
    17
  0
LAYER
  5
10
330
2
100
AcDbSymbolTableRecord
100
AcDbLayerTableRecord
  2
0
 70
     0
 62
     7
  6
Continuous
370
    -3
390
F
  0
LAYER
  5
73
330
2
100
AcDbSymbolTableRecord
100
AcDbLayerTableRecord
  2
FORMAT
 70
     0
 62
     7
  6
Continuous
370
    -3
390
F
  0
LAYER
  5
74
330
2
100
AcDbSymbolTableRecord
100
AcDbLayerTableRecord
  2
YARDIMCI_GEOMETRI
 70
     0
 62
    -6
  6
Continuous
290
     0
370
    -3
390
F
  0
LAYER
  5
75
330
2
100
AcDbSymbolTableRecord
100
AcDbLayerTableRecord
  2
SAYFA_CERCEVESI
 70
     0
 62
     7
  6
Continuous
370
    25
390
F
  0
LAYER
  5
76
330
2
100
AcDbSymbolTableRecord
100
AcDbLayerTableRecord
  2
ANTET
 70
     0
 62
     7
  6
Continuous
370
    -3
390
F
  0
LAYER
  5
77
330
2
100
AcDbSymbolTableRecord
100
AcDbLayerTableRecord
  2
OLCU
 70
     0
 62
   150
  6
Continuous
370
    -3
390
F
  0
LAYER
  5
78
330
2
100
AcDbSymbolTableRecord
100
AcDbLayerTableRecord
  2
METIN
 70
     0
 62
    96
  6
Continuous
370
    -3
390
F
  0
LAYER
  5
79
330
2
100
AcDbSymbolTableRecord
100
AcDbLayerTableRecord
  2
BALON
 70
     0
 62
     5
  6
Continuous
370
    -3
390
F
  0
LAYER
  5
7A
330
2
100
AcDbSymbolTableRecord
100
AcDbLayerTableRecord
  2
VURGU
 70
     0
 62
     7
  6
Continuous
370
    -3
390
F
  0
LAYER
  5
7B
330
2
100
AcDbSymbolTableRecord
100
AcDbLayerTableRecord
  2
SILIK
 70
     0
 62
     7
  6
Continuous
370
    -3
390
F
  0
LAYER
  5
7C
330
2
100
AcDbSymbolTableRecord
100
AcDbLayerTableRecord
  2
MODEL
 70
     0
 62
     7
  6
Continuous
370
    -3
390
F
  0
LAYER
  5
7D
330
2
100
AcDbSymbolTableRecord
100
AcDbLayerTableRecord
  2
DETAYLANDıRMA
 70
     0
 62
   190
  6
Continuous
370
    -3
390
F
  0
LAYER
  5
7E
330
2
100
AcDbSymbolTableRecord
100
AcDbLayerTableRecord
  2
TOLERANS
 70
     0
 62
   230
  6
Continuous
370
    -3
390
F
  0
LAYER
  5
7F
330
2
100
AcDbSymbolTableRecord
100
AcDbLayerTableRecord
  2
MERKEZ_CIZGILERI
 70
     0
 62
    30
  6
Continuous
370
    -3
390
F
  0
LAYER
  5
80
330
2
100
AcDbSymbolTableRecord
100
AcDbLayerTableRecord
  2
KESIT-DETAY_CIZGILERI
 70
     0
 62
     7
  6
Continuous
370
    -3
390
F
  0
LAYER
  5
81
330
2
100
AcDbSymbolTableRecord
100
AcDbLayerTableRecord
  2
\U+041E\U+0421\U+0415\U+0412\U+042B\U+0415
 70
     0
 62
     7
  6
Continuous
370
    -3
390
F
  0
LAYER
  5
82
330
2
100
AcDbSymbolTableRecord
100
AcDbLayerTableRecord
  2
\U+0412\U+041E\U+0414\U+042F\U+041D\U+042B\U+0415_\U+0417\U+041D\U+0410\U+041A\U+0418
 70
     0
 62
    11
  6
Continuous
370
    -3
390
F
  0
ENDTAB
  0
TABLE
  2
STYLE
  5
3
330
0
100
AcDbSymbolTable
 70
     1
  0
STYLE
  5
11
330
3
100
AcDbSymbolTableRecord
100
AcDbTextStyleTableRecord
  2
Standard
 70
     0
 40
0.0
 41
1.0
 50
0.0
 71
     0
 42
3.5
  3
txt
  4

  0
ENDTAB
  0
TABLE
  2
VIEW
  5
6
330
0
100
AcDbSymbolTable
 70
     0
  0
ENDTAB
  0
TABLE
  2
UCS
  5
7
330
0
100
AcDbSymbolTable
 70
     0
  0
ENDTAB
  0
TABLE
  2
APPID
  5
9
330
0
100
AcDbSymbolTable
 70
     1
  0
APPID
  5
12
330
9
100
AcDbSymbolTableRecord
100
AcDbRegAppTableRecord
  2
ACAD
 70
     0
  0
ENDTAB
  0
TABLE
  2
DIMSTYLE
  5
A
330
0
100
AcDbSymbolTable
 70
     1
100
AcDbDimStyleTable
  0
DIMSTYLE
105
27
330
A
100
AcDbSymbolTableRecord
100
AcDbDimStyleTableRecord
  2
ISO-25
 70
     0
 41
2.5
 42
0.625
 43
3.75
 44
1.25
 73
     0
 74
     0
 77
     1
 78
     8
140
2.5
141
2.5
143
0.0393700787
147
0.625
171
     3
172
     1
178
     0
271
     2
272
     2
274
     3
278
    44
283
     0
284
     8
340
11
  0
ENDTAB
  0
TABLE
  2
BLOCK_RECORD
  5
1
330
0
100
AcDbSymbolTable
 70
     4
  0
BLOCK_RECORD
  5
1F
330
1
100
AcDbSymbolTableRecord
100
AcDbBlockTableRecord
  2
*Model_Space
340
22
  0
BLOCK_RECORD
  5
1B
330
1
100
AcDbSymbolTableRecord
100
AcDbBlockTableRecord
  2
*Paper_Space
340
1E
  0
BLOCK_RECORD
  5
23
330
1
100
AcDbSymbolTableRecord
100
AcDbBlockTableRecord
  2
*Paper_Space0
340
26
  0
BLOCK_RECORD
  5
8C
330
1
100
AcDbSymbolTableRecord
100
AcDbBlockTableRecord
  2
SW_CENTERMARKSYMBOL_0
340
0
102
{BLKREFS
331
97
102
}
  0
BLOCK_RECORD
  5
DE
330
1
100
AcDbSymbolTableRecord
100
AcDbBlockTableRecord
  2
SW_CENTERMARKSYMBOL_1
340
0
102
{BLKREFS
331
E9
102
}
  0
BLOCK_RECORD
  5
EA
330
1
100
AcDbSymbolTableRecord
100
AcDbBlockTableRecord
  2
SW_CENTERMARKSYMBOL_2
340
0
102
{BLKREFS
331
F5
102
}
  0
ENDTAB
  0
ENDSEC
  0
SECTION
  2
BLOCKS
  0
BLOCK
  5
20
330
1F
100
AcDbEntity
  8
0
100
AcDbBlockBegin
  2
*Model_Space
 70
     0
 10
0.0
 20
0.0
 30
0.0
  3
*Model_Space
  1

  0
ENDBLK
  5
21
330
1F
100
AcDbEntity
  8
0
100
AcDbBlockEnd
  0
BLOCK
  5
1C
330
1B
100
AcDbEntity
 67
     1
  8
0
100
AcDbBlockBegin
  2
*Paper_Space
 70
     0
 10
0.0
 20
0.0
 30
0.0
  3
*Paper_Space
  1

  0
ENDBLK
  5
1D
330
1B
100
AcDbEntity
 67
     1
  8
0
100
AcDbBlockEnd
  0
BLOCK
  5
24
330
23
100
AcDbEntity
  8
0
100
AcDbBlockBegin
  2
*Paper_Space0
 70
     0
 10
0.0
 20
0.0
 30
0.0
  3
*Paper_Space0
  1

  0
ENDBLK
  5
25
330
23
100
AcDbEntity
  8
0
100
AcDbBlockEnd
  0
BLOCK
  5
8D
330
8C
100
AcDbEntity
  8
0
100
AcDbBlockBegin
  2
SW_CENTERMARKSYMBOL_0
 70
     0
 10
0.0
 20
0.0
 30
0.0
  3
SW_CENTERMARKSYMBOL_0
  1

  0
LINE
  5
8F
330
8C
100
AcDbEntity
  8
FORMAT
 62
     0
100
AcDbLine
 10
0.0
 20
0.0
 30
0.0
 11
0.0
 21
2.5
 31
0.0
  0
LINE
  5
90
330
8C
100
AcDbEntity
  8
FORMAT
 62
     0
100
AcDbLine
 10
0.0
 20
0.0
 30
0.0
 11
-2.5
 21
0.0
 31
0.0
  0
LINE
  5
91
330
8C
100
AcDbEntity
  8
FORMAT
 62
     0
100
AcDbLine
 10
0.0
 20
0.0
 30
0.0
 11
0.0
 21
-2.5
 31
0.0
  0
LINE
  5
92
330
8C
100
AcDbEntity
  8
FORMAT
 62
     0
100
AcDbLine
 10
0.0
 20
0.0
 30
0.0
 11
2.5
 21
0.0
 31
0.0
  0
LINE
  5
93
330
8C
100
AcDbEntity
  8
FORMAT
 62
     0
100
AcDbLine
 10
0.0
 20
5.0
 30
0.0
 11
0.0
 21
115.7
 31
0.0
  0
LINE
  5
94
330
8C
100
AcDbEntity
  8
FORMAT
 62
     0
100
AcDbLine
 10
-5.0
 20
0.0
 30
0.0
 11
-115.7
 21
0.0
 31
0.0
  0
LINE
  5
95
330
8C
100
AcDbEntity
  8
FORMAT
 62
     0
100
AcDbLine
 10
0.0
 20
-5.0
 30
0.0
 11
0.0
 21
-115.7
 31
0.0
  0
LINE
  5
96
330
8C
100
AcDbEntity
  8
FORMAT
 62
     0
100
AcDbLine
 10
5.0
 20
0.0
 30
0.0
 11
115.7
 21
0.0
 31
0.0
  0
ENDBLK
  5
8E
330
8C
100
AcDbEntity
  8
0
100
AcDbBlockEnd
  0
BLOCK
  5
DF
330
DE
100
AcDbEntity
  8
0
100
AcDbBlockBegin
  2
SW_CENTERMARKSYMBOL_1
 70
     0
 10
0.0
 20
0.0
 30
0.0
  3
SW_CENTERMARKSYMBOL_1
  1

  0
LINE
  5
E1
330
DE
100
AcDbEntity
  8
FORMAT
 62
     0
100
AcDbLine
 10
0.0
 20
0.0
 30
0.0
 11
0.0
 21
2.5
 31
0.0
  0
LINE
  5
E2
330
DE
100
AcDbEntity
  8
FORMAT
 62
     0
100
AcDbLine
 10
0.0
 20
0.0
 30
0.0
 11
-2.5
 21
0.0
 31
0.0
  0
LINE
  5
E3
330
DE
100
AcDbEntity
  8
FORMAT
 62
     0
100
AcDbLine
 10
0.0
 20
0.0
 30
0.0
 11
0.0
 21
-2.5
 31
0.0
  0
LINE
  5
E4
330
DE
100
AcDbEntity
  8
FORMAT
 62
     0
100
AcDbLine
 10
0.0
 20
0.0
 30
0.0
 11
2.5
 21
0.0
 31
0.0
  0
LINE
  5
E5
330
DE
100
AcDbEntity
  8
FORMAT
 62
     0
100
AcDbLine
 10
0.0
 20
5.0
 30
0.0
 11
0.0
 21
9.5
 31
0.0
  0
LINE
  5
E6
330
DE
100
AcDbEntity
  8
FORMAT
 62
     0
100
AcDbLine
 10
-5.0
 20
0.0
 30
0.0
 11
-9.5
 21
0.0
 31
0.0
  0
LINE
  5
E7
330
DE
100
AcDbEntity
  8
FORMAT
 62
     0
100
AcDbLine
 10
0.0
 20
-5.0
 30
0.0
 11
0.0
 21
-9.5
 31
0.0
  0
LINE
  5
E8
330
DE
100
AcDbEntity
  8
FORMAT
 62
     0
100
AcDbLine
 10
5.0
 20
0.0
 30
0.0
 11
9.5
 21
0.0
 31
0.0
  0
ENDBLK
  5
E0
330
DE
100
AcDbEntity
  8
0
100
AcDbBlockEnd
  0
BLOCK
  5
EB
330
EA
100
AcDbEntity
  8
0
100
AcDbBlockBegin
  2
SW_CENTERMARKSYMBOL_2
 70
     0
 10
0.0
 20
0.0
 30
0.0
  3
SW_CENTERMARKSYMBOL_2
  1

  0
LINE
  5
ED
330
EA
100
AcDbEntity
  8
FORMAT
 62
     0
100
AcDbLine
 10
0.0
 20
0.0
 30
0.0
 11
0.0
 21
2.5
 31
0.0
  0
LINE
  5
EE
330
EA
100
AcDbEntity
  8
FORMAT
 62
     0
100
AcDbLine
 10
0.0
 20
0.0
 30
0.0
 11
-2.5
 21
0.0
 31
0.0
  0
LINE
  5
EF
330
EA
100
AcDbEntity
  8
FORMAT
 62
     0
100
AcDbLine
 10
0.0
 20
0.0
 30
0.0
 11
0.0
 21
-2.5
 31
0.0
  0
LINE
  5
F0
330
EA
100
AcDbEntity
  8
FORMAT
 62
     0
100
AcDbLine
 10
0.0
 20
0.0
 30
0.0
 11
2.5
 21
0.0
 31
0.0
  0
LINE
  5
F1
330
EA
100
AcDbEntity
  8
FORMAT
 62
     0
100
AcDbLine
 10
0.0
 20
5.0
 30
0.0
 11
0.0
 21
9.5
 31
0.0
  0
LINE
  5
F2
330
EA
100
AcDbEntity
  8
FORMAT
 62
     0
100
AcDbLine
 10
-5.0
 20
0.0
 30
0.0
 11
-9.5
 21
0.0
 31
0.0
  0
LINE
  5
F3
330
EA
100
AcDbEntity
  8
FORMAT
 62
     0
100
AcDbLine
 10
0.0
 20
-5.0
 30
0.0
 11
0.0
 21
-9.5
 31
0.0
  0
LINE
  5
F4
330
EA
100
AcDbEntity
  8
FORMAT
 62
     0
100
AcDbLine
 10
5.0
 20
0.0
 30
0.0
 11
9.5
 21
0.0
 31
0.0
  0
ENDBLK
  5
EC
330
EA
100
AcDbEntity
  8
0
100
AcDbBlockEnd
  0
ENDSEC
  0
SECTION
  2
ENTITIES
  0
LINE
  5
83
330
1F
100
AcDbEntity
  8
0
  6
Continuous
 62
     7
370
    25
100
AcDbLine
 10
144.4637874962
 20
224.6495717489
 30
0.0
 11
144.4637874962
 21
238.9649519231
 31
0.0
  0
LINE
  5
84
330
1F
100
AcDbEntity
  8
0
  6
Continuous
 62
     7
370
    25
100
AcDbLine
 10
130.4637874962
 20
238.9649519231
 30
0.0
 11
130.4637874962
 21
224.6451898724
 31
0.0
  0
CIRCLE
  5
85
330
1F
100
AcDbEntity
  8
0
  6
Continuous
 62
     7
370
    25
100
AcDbCircle
 10
137.4637874962
 20
95.8949519231
 30
0.0
 40
128.7
  0
ARC
  5
86
330
1F
100
AcDbEntity
  8
0
  6
Continuous
 62
     7
370
    25
100
AcDbCircle
 10
137.4637874962
 20
95.8949519231
 30
0.0
 40
129.6999999999997
100
AcDbArc
 50
93.0937966156
 51
180.0
  0
ARC
  5
87
330
1F
100
AcDbEntity
  8
0
  6
Continuous
 62
     7
370
    25
100
AcDbCircle
 10
137.4637874962
 20
95.8949519231
 30
0.0
 40
129.6999999999997
100
AcDbArc
 50
180.0
 51
86.9062033844
  0
SPLINE
  5
88
330
1F
100
AcDbEntity
  8
0
  6
Continuous
 62
     7
370
    25
100
AcDbSpline
210
0.0
220
0.0
230
1.0
 70
     8
 71
     3
 72
    14
 73
    10
 74
     0
 42
0.00000001
 43
0.00000001
 40
0.0
 40
0.0
 40
0.0
 40
0.0
 40
0.1430416828505771
 40
0.2860848270196739
 40
0.4290785135499885
 40
0.5720307718718702
 40
0.7150484690476953
 40
0.8580985595548777
 40
1.0
 40
1.0
 40
1.0
 40
1.0
 10
142.4253940940627
 20
224.6447562626621
 30
0.0
 10
141.8153139614195
 20
224.6561277327521
 30
0.0
 10
140.5951474635345
 20
224.6788707891037
 30
0.0
 10
138.2618020024212
 20
224.7022607095834
 30
0.0
 10
135.8801435907982
 20
224.6973129981479
 30
0.0
 10
133.6624189989271
 20
224.667661936729
 30
0.0
 10
131.8910381105922
 20
224.6325983820465
 30
0.0
 10
130.692125635172
 20
224.6135661905633
 30
0.0
 10
130.5415959337571
 20
224.6346770112686
 30
0.0
 10
130.4666344784206
 20
224.6451898723754
 30
0.0
  0
SPLINE
  5
89
330
1F
100
AcDbEntity
  8
0
  6
Continuous
 62
     7
370
    25
100
AcDbSpline
210
0.0
220
0.0
230
1.0
 70
     8
 71
     3
 72
    10
 73
     6
 74
     0
 42
0.00000001
 43
0.00000001
 40
0.0
 40
0.0
 40
0.0
 40
0.0
 40
0.2971271164802236
 40
0.7270118579795074
 40
1.0
 40
1.0
 40
1.0
 40
1.0
 10
144.3788760181571
 20
224.6495717488878
 30
0.0
 10
144.3752634129663
 20
224.639596059135
 30
0.0
 10
144.3664240756382
 20
224.615187500173
 30
0.0
 10
143.589959182608
 20
224.6233812870933
 30
0.0
 10
142.7511704612538
 20
224.6387768099393
 30
0.0
 10
142.4253940940627
 20
224.6447562626621
 30
0.0
  0
CIRCLE
  5
8A
330
1F
100
AcDbEntity
  8
0
  6
Continuous
 62
     7
370
    25
100
AcDbCircle
 10
137.4637874962
 20
95.8949519231
 30
0.0
 40
113.2
  0
LINE
  5
8B
330
1F
100
AcDbEntity
  8
0
  6
Continuous
 62
     7
370
    25
100
AcDbLine
 10
144.4637874962
 20
238.9649519231
 30
0.0
 11
130.4637874962
 21
238.9649519231
 31
0.0
  0
INSERT
  5
97
330
1F
100
AcDbEntity
  8
FORMAT
 62
     7
100
AcDbBlockReference
  2
SW_CENTERMARKSYMBOL_0
 10
137.4637874962
 20
95.8949519231
 30
0.0
  0
ARC
  5
98
330
1F
100
AcDbEntity
  8
0
  6
Continuous
 62
     7
370
    25
100
AcDbCircle
 10
501.7896834411
 20
-4146.0300480769
 30
0.0
 40
4371.62500000002
100
AcDbArc
 50
91.1588327333
 51
91.2255314445
  0
ARC
  5
99
330
1F
100
AcDbEntity
  8
0
  6
Continuous
 62
     7
370
    25
100
AcDbCircle
 10
501.7896834411
 20
-4146.0300480769
 30
0.0
 40
4371.62500000002
100
AcDbArc
 50
90.0
 51
90.9776537999
  0
ARC
  5
9A
330
1F
100
AcDbEntity
  8
0
  6
Continuous
 62
     7
370
    25
100
AcDbCircle
 10
501.7896834411
 20
4337.8199519231
 30
0.0
 40
4371.625000000019
100
AcDbArc
 50
268.7744685555
 51
270.0
  0
LINE
  5
9B
330
1F
100
AcDbEntity
  8
0
  6
Continuous
 62
     7
370
    25
100
AcDbLine
 10
501.7896834411
 20
-33.8050480769
 30
0.0
 11
526.7896834411
 21
-33.8050480769
 31
0.0
  0
LINE
  5
9C
330
1F
100
AcDbEntity
  8
0
  6
Continuous
 62
     7
370
    25
100
AcDbLine
 10
526.7896834411
 20
225.5949519231
 30
0.0
 11
501.7896834411
 21
225.5949519231
 31
0.0
  0
ARC
  5
9D
330
1F
100
AcDbEntity
  8
0
  6
Continuous
 62
     7
370
    25
100
AcDbCircle
 10
526.7896834411
 20
-4146.0300480769
 30
0.0
 40
4371.625000000019
100
AcDbArc
 50
89.0223507445
 51
90.0
  0
ARC
  5
9E
330
1F
100
AcDbEntity
  8
0
  6
Continuous
 62
     7
370
    25
100
AcDbCircle
 10
526.7896834411
 20
-4146.0300480769
 30
0.0
 40
4371.62500000002
100
AcDbArc
 50
88.7744685555
 51
88.841176206
  0
ARC
  5
9F
330
1F
100
AcDbEntity
  8
0
  6
Continuous
 62
     7
370
    25
100
AcDbCircle
 10
526.7896834411
 20
4337.8199519231
 30
0.0
 40
4371.625000000019
100
AcDbArc
 50
270.0
 51
271.2255314445
  0
LINE
  5
A0
330
1F
100
AcDbEntity
  8
0
  6
Continuous
 62
     7
370
    25
100
AcDbLine
 10
427.2896834411
 20
224.9537117933
 30
0.0
 11
427.2896834411
 21
238.9649519231
 31
0.0
  0
LINE
  5
A1
330
1F
100
AcDbEntity
  8
0
  6
Continuous
 62
     7
370
    25
100
AcDbLine
 10
413.2896834411
 20
238.9649519231
 30
0.0
 11
413.2896834411
 21
224.6961093979
 31
0.0
  0
LINE
  5
A2
330
1F
100
AcDbEntity
  8
0
  6
Continuous
 62
     7
370
    25
100
AcDbLine
 10
615.2896834411
 20
224.6960859001
 30
0.0
 11
615.2896834411
 21
238.9649519231
 31
0.0
  0
LINE
  5
A3
330
1F
100
AcDbEntity
  8
0
  6
Continuous
 62
     7
370
    25
100
AcDbLine
 10
601.2896834411
 20
238.9649519231
 30
0.0
 11
601.2896834411
 21
224.9537229491
 31
0.0
  0
LINE
  5
A4
330
1F
100
AcDbEntity
  8
0
  6
Continuous
 62
     7
370
    25
100
AcDbLine
 10
408.2896834411
 20
95.8949519231
 30
0.0
 11
408.2896834411
 21
224.5949519231
 31
0.0
  0
LINE
  5
A5
330
1F
100
AcDbEntity
  8
0
  6
Continuous
 62
     7
370
    25
100
AcDbLine
 10
408.2896834411
 20
-32.8050480769
 30
0.0
 11
408.2896834411
 21
95.8949519231
 31
0.0
  0
SPLINE
  5
A6
330
1F
100
AcDbEntity
  8
0
  6
Continuous
 62
     7
370
    25
100
AcDbSpline
210
0.0
220
0.0
230
1.0
 70
     8
 71
     3
 72
    17
 73
    13
 74
     0
 42
0.00000001
 43
0.00000001
 40
0.0
 40
0.0
 40
0.0
 40
0.0
 40
0.0693635882356954
 40
0.1764968576826872
 40
0.2837931509078094
 40
0.3913121573573858
 40
0.4988457258976008
 40
0.6062108714008739
 40
0.7134704843868922
 40
0.8207912768886761
 40
0.9281972944455928
 40
1.0
 40
1.0
 40
1.0
 40
1.0
 10
427.1992135395754
 20
224.9536954471784
 30
0.0
 10
427.2025284006749
 20
224.9539010546522
 30
0.0
 10
427.2109631224445
 20
224.9544242264484
 30
0.0
 10
426.3325378206842
 20
224.893277519326
 30
0.0
 10
424.7749663574044
 20
224.8003126628818
 30
0.0
 10
422.6788468014745
 20
224.7046555023705
 30
0.0
 10
420.319489196652
 20
224.6383511336761
 30
0.0
 10
417.9578613433286
 20
224.6154575697323
 30
0.0
 10
415.8529631856704
 20
224.6320905440354
 30
0.0
 10
414.2774090585791
 20
224.666944749464
 30
0.0
 10
413.3773548404773
 20
224.695988461498
 30
0.0
 10
413.3775690523074
 20
224.6960677046558
 30
0.0
 10
413.3776548795411
 20
224.6960994546345
 30
0.0
  0
LINE
  5
A7
330
1F
100
AcDbEntity
  8
0
  6
Continuous
 62
     7
370
    25
100
AcDbLine
 10
620.2896834411
 20
95.8949519231
 30
0.0
 11
620.2896834411
 21
224.5949519231
 31
0.0
  0
LINE
  5
A8
330
1F
100
AcDbEntity
  8
0
  6
Continuous
 62
     7
370
    25
100
AcDbLine
 10
620.2896834411
 20
-32.8050480769
 30
0.0
 11
620.2896834411
 21
95.8949519231
 31
0.0
  0
SPLINE
  5
A9
330
1F
100
AcDbEntity
  8
0
  6
Continuous
 62
     7
370
    25
100
AcDbSpline
210
0.0
220
0.0
230
1.0
 70
     8
 71
     3
 72
    17
 73
    13
 74
     0
 42
0.00000001
 43
0.00000001
 40
0.0
 40
0.0
 40
0.0
 40
0.0
 40
0.0712141343074491
 40
0.1785504568865953
 40
0.2859359145127742
 40
0.3933456948121644
 40
0.5006739156524072
 40
0.6079342509374497
 40
0.7152908878164804
 40
0.8228194135642098
 40
0.9303484905523212
 40
1.0
 40
1.0
 40
1.0
 40
1.0
 10
615.2010362517682
 20
224.6960760380203
 30
0.0
 10
615.201921312657
 20
224.6960724852258
 30
0.0
 10
615.2041403668882
 20
224.6960635775406
 30
0.0
 10
614.309048875454
 20
224.6671481790631
 30
0.0
 10
612.7365113247859
 20
224.6322456357846
 30
0.0
 10
610.6321569459589
 20
224.6154447745897
 30
0.0
 10
608.2723514315552
 20
224.6381383174007
 30
0.0
 10
605.915919208369
 20
224.7041082441353
 30
0.0
 10
603.8182296962644
 20
224.7995632520226
 30
0.0
 10
602.2536782464882
 20
224.8928116123575
 30
0.0
 10
601.3694557271161
 20
224.9543482547566
 30
0.0
 10
601.3770320067129
 20
224.9538871651523
 30
0.0
 10
601.3800103200851
 20
224.9537059060901
 30
0.0
  0
LINE
  5
AA
330
1F
100
AcDbEntity
  8
0
  6
Continuous
 62
     7
370
    25
100
AcDbLine
 10
427.2896834411
 20
238.9649519231
 30
0.0
 11
413.2896834411
 21
238.9649519231
 31
0.0
  0
LINE
  5
AB
330
1F
100
AcDbEntity
  8
0
  6
Continuous
 62
     7
370
    25
100
AcDbLine
 10
615.2896834411
 20
238.9649519231
 30
0.0
 11
601.2896834411
 21
238.9649519231
 31
0.0
  0
LINE
  5
AC
330
1F
100
AcDbEntity
  8
0
  6
Continuous
 62
     1
370
    25
100
AcDbLine
 10
501.7896834411
 20
95.8949519231
 30
0.0
 11
501.7896834411
 21
225.5949519231
 31
0.0
  0
LINE
  5
AD
330
1F
100
AcDbEntity
  8
0
  6
Continuous
 62
     1
370
    25
100
AcDbLine
 10
501.7896834411
 20
-33.8050480769
 30
0.0
 11
501.7896834411
 21
95.8949519231
 31
0.0
  0
LINE
  5
AE
330
1F
100
AcDbEntity
  8
0
  6
Continuous
 62
     1
370
    25
100
AcDbLine
 10
526.7896834411
 20
95.8949519231
 30
0.0
 11
526.7896834411
 21
225.5949519231
 31
0.0
  0
LINE
  5
AF
330
1F
100
AcDbEntity
  8
0
  6
Continuous
 62
     1
370
    25
100
AcDbLine
 10
526.7896834411
 20
-33.8050480769
 30
0.0
 11
526.7896834411
 21
95.8949519231
 31
0.0
  0
ARC
  5
B0
330
1F
100
AcDbEntity
  8
0
  6
Continuous
 62
     7
370
    25
100
AcDbCircle
 10
4379.3887874962
 20
431.0411886171
 30
0.0
 40
4371.62500000002
100
AcDbArc
 50
180.0
 51
181.2255314445
  0
ARC
  5
B1
330
1F
100
AcDbEntity
  8
0
  6
Continuous
 62
     7
370
    25
100
AcDbCircle
 10
-4104.4612125039
 20
431.0411886171
 30
0.0
 40
4371.625000000019
100
AcDbArc
 50
358.7744685555
 51
0.0
  0
LINE
  5
B2
330
1F
100
AcDbEntity
  8
0
  6
Continuous
 62
     7
370
    25
100
AcDbLine
 10
267.1637874962
 20
431.0411886171
 30
0.0
 11
267.1637874962
 21
456.0411886171
 31
0.0
  0
LINE
  5
B3
330
1F
100
AcDbEntity
  8
0
  6
Continuous
 62
     7
370
    25
100
AcDbLine
 10
7.7637874962
 20
456.0411886171
 30
0.0
 11
7.7637874962
 21
431.0411886171
 31
0.0
  0
ARC
  5
B4
330
1F
100
AcDbEntity
  8
0
  6
Continuous
 62
     7
370
    25
100
AcDbCircle
 10
4379.3887874962
 20
456.0411886171
 30
0.0
 40
4371.62500000002
100
AcDbArc
 50
178.7744685555
 51
180.0
  0
ARC
  5
B5
330
1F
100
AcDbEntity
  8
0
  6
Continuous
 62
     7
370
    25
100
AcDbCircle
 10
-4104.4612125039
 20
456.0411886171
 30
0.0
 40
4371.625000000019
100
AcDbArc
 50
0.0
 51
1.2255314445
  0
LINE
  5
B6
330
1F
100
AcDbEntity
  8
0
  6
Continuous
 62
     7
370
    25
100
AcDbLine
 10
266.1637874962
 20
337.5411886171
 30
0.0
 11
8.7637874962
 21
337.5411886171
 31
0.0
  0
LINE
  5
B7
330
1F
100
AcDbEntity
  8
0
  6
Continuous
 62
     7
370
    25
100
AcDbLine
 10
266.1637874962
 20
549.5411886171
 30
0.0
 11
8.7637874962
 21
549.5411886171
 31
0.0
  0
LINE
  5
B8
330
1F
100
AcDbEntity
  8
0
  6
Continuous
 62
     1
370
    25
100
AcDbLine
 10
267.1637874962
 20
431.0411886171
 30
0.0
 11
7.7637874962
 21
431.0411886171
 31
0.0
  0
LINE
  5
B9
330
1F
100
AcDbEntity
  8
0
  6
Continuous
 62
     1
370
    25
100
AcDbLine
 10
267.1637874962
 20
456.0411886171
 30
0.0
 11
7.7637874962
 21
456.0411886171
 31
0.0
  0
ARC
  5
BA
330
1F
100
AcDbEntity
  8
0
  6
Continuous
 62
     7
370
    25
100
AcDbCircle
 10
-221.7110332541
 20
4337.8199519231
 30
0.0
 40
4371.625000000019
100
AcDbArc
 50
270.0
 51
271.2255314445
  0
ARC
  5
BB
330
1F
100
AcDbEntity
  8
0
  6
Continuous
 62
     7
370
    25
100
AcDbCircle
 10
-221.7110332541
 20
-4146.0300480769
 30
0.0
 40
4371.62500000002
100
AcDbArc
 50
89.0223488324
 51
90.0
  0
ARC
  5
BC
330
1F
100
AcDbEntity
  8
0
  6
Continuous
 62
     7
370
    25
100
AcDbCircle
 10
-221.7110332541
 20
-4146.0300480769
 30
0.0
 40
4371.62500000002
100
AcDbArc
 50
88.7744685555
 51
88.8411675519
  0
LINE
  5
BD
330
1F
100
AcDbEntity
  8
0
  6
Continuous
 62
     7
370
    25
100
AcDbLine
 10
-221.7110332541
 20
225.5949519231
 30
0.0
 11
-246.7110332541
 21
225.5949519231
 31
0.0
  0
LINE
  5
BE
330
1F
100
AcDbEntity
  8
0
  6
Continuous
 62
     7
370
    25
100
AcDbLine
 10
-246.7110332541
 20
-33.8050480769
 30
0.0
 11
-221.7110332541
 21
-33.8050480769
 31
0.0
  0
ARC
  5
BF
330
1F
100
AcDbEntity
  8
0
  6
Continuous
 62
     7
370
    25
100
AcDbCircle
 10
-246.7110332541
 20
4337.8199519231
 30
0.0
 40
4371.625000000019
100
AcDbArc
 50
268.7744685555
 51
270.0
  0
ARC
  5
C0
330
1F
100
AcDbEntity
  8
0
  6
Continuous
 62
     7
370
    25
100
AcDbCircle
 10
-246.7110332541
 20
-4146.0300480769
 30
0.0
 40
4371.62500000002
100
AcDbArc
 50
91.1588240696
 51
91.2255314445
  0
ARC
  5
C1
330
1F
100
AcDbEntity
  8
0
  6
Continuous
 62
     7
370
    25
100
AcDbCircle
 10
-246.7110332541
 20
-4146.0300480769
 30
0.0
 40
4371.62500000002
100
AcDbArc
 50
90.0
 51
90.9776518879
  0
LINE
  5
C2
330
1F
100
AcDbEntity
  8
0
  6
Continuous
 62
     7
370
    25
100
AcDbLine
 10
-133.2110332541
 20
224.6961093979
 30
0.0
 11
-133.2110332541
 21
238.9649519231
 31
0.0
  0
LINE
  5
C3
330
1F
100
AcDbEntity
  8
0
  6
Continuous
 62
     7
370
    25
100
AcDbLine
 10
-147.2110332541
 20
238.9649519231
 30
0.0
 11
-147.2110332541
 21
224.9537117933
 31
0.0
  0
LINE
  5
C4
330
1F
100
AcDbEntity
  8
0
  6
Continuous
 62
     7
370
    25
100
AcDbLine
 10
-321.2110332541
 20
224.9537229491
 30
0.0
 11
-321.2110332541
 21
238.9649519231
 31
0.0
  0
LINE
  5
C5
330
1F
100
AcDbEntity
  8
0
  6
Continuous
 62
     7
370
    25
100
AcDbLine
 10
-335.2110332541
 20
238.9649519231
 30
0.0
 11
-335.2110332541
 21
224.6960859001
 31
0.0
  0
LINE
  5
C6
330
1F
100
AcDbEntity
  8
0
  6
Continuous
 62
     7
370
    25
100
AcDbLine
 10
-128.2110332541
 20
224.5949519231
 30
0.0
 11
-128.2110332541
 21
-32.8050480769
 31
0.0
  0
SPLINE
  5
C7
330
1F
100
AcDbEntity
  8
0
  6
Continuous
 62
     7
370
    25
100
AcDbSpline
210
0.0
220
0.0
230
1.0
 70
     8
 71
     3
 72
    10
 73
     6
 74
     0
 42
0.00000001
 43
0.00000001
 40
0.0
 40
0.0
 40
0.0
 40
0.0
 40
0.4250402962937675
 40
0.8501081940302899
 40
0.9999999999999999
 40
0.9999999999999999
 40
0.9999999999999999
 40
0.9999999999999999
 10
-145.1224746762177
 20
224.8275652195613
 30
0.0
 10
-145.6187504912459
 20
224.8570504056237
 30
0.0
 10
-146.6113343486668
 20
224.9160226924696
 30
0.0
 10
-147.2367126557932
 20
224.9620132999399
 30
0.0
 10
-147.1445797132869
 20
224.9554153441264
 30
0.0
 10
-147.1205606854271
 20
224.9536952592122
 30
0.0
  0
SPLINE
  5
C8
330
1F
100
AcDbEntity
  8
0
  6
Continuous
 62
     7
370
    25
100
AcDbSpline
210
0.0
220
0.0
230
1.0
 70
     8
 71
     3
 72
    15
 73
    11
 74
     0
 42
0.00000001
 43
0.00000001
 40
0.0
 40
0.0
 40
0.0
 40
0.0
 40
0.0475808129116445
 40
0.1910550285781019
 40
0.3345653098210032
 40
0.478140950113096
 40
0.6216506257857709
 40
0.7650337852912674
 40
0.9084656116275989
 40
1.0
 40
1.0
 40
1.0
 40
1.0
 10
-133.2990194677944
 20
224.6960989631472
 30
0.0
 10
-133.2745217882284
 20
224.6969203893359
 30
0.0
 10
-133.1761543038752
 20
224.7002187273497
 30
0.0
 10
-133.8171328037709
 20
224.678389865761
 30
0.0
 10
-135.1591149669418
 20
224.6434840766585
 30
0.0
 10
-137.1245596694935
 20
224.617341776985
 30
0.0
 10
-139.42521114774
 20
224.6255533236692
 30
0.0
 10
-141.8078391266337
 20
224.6776291502083
 30
0.0
 10
-143.7722153665171
 20
224.7554664537355
 30
0.0
 10
-144.743929709099
 20
224.8073523428622
 30
0.0
 10
-145.1224746762177
 20
224.8275652195613
 30
0.0
  0
LINE
  5
C9
330
1F
100
AcDbEntity
  8
0
  6
Continuous
 62
     7
370
    25
100
AcDbLine
 10
-340.2110332541
 20
224.5949519231
 30
0.0
 11
-340.2110332541
 21
-32.8050480769
 31
0.0
  0
SPLINE
  5
CA
330
1F
100
AcDbEntity
  8
0
  6
Continuous
 62
     7
370
    25
100
AcDbSpline
210
0.0
220
0.0
230
1.0
 70
     8
 71
     3
 72
    10
 73
     6
 74
     0
 42
0.00000001
 43
0.00000001
 40
0.0
 40
0.0
 40
0.0
 40
0.0
 40
0.4279876430794863
 40
0.85597965849476
 40
1.0
 40
1.0
 40
1.0
 40
1.0
 10
-333.1488931111404
 20
224.6447562626621
 30
0.0
 10
-333.6418909824987
 20
224.6557705518035
 30
0.0
 10
-334.6278917616977
 20
224.6777992426086
 30
0.0
 10
-335.2422199692126
 20
224.7001910139062
 30
0.0
 10
-335.1465001189052
 20
224.6969040785693
 30
0.0
 10
-335.122399930573
 20
224.6960764993326
 30
0.0
  0
SPLINE
  5
CB
330
1F
100
AcDbEntity
  8
0
  6
Continuous
 62
     7
370
    25
100
AcDbSpline
210
0.0
220
0.0
230
1.0
 70
     8
 71
     3
 72
    15
 73
    11
 74
     0
 42
0.00000001
 43
0.00000001
 40
0.0
 40
0.0
 40
0.0
 40
0.0
 40
0.0502196843726043
 40
0.1930947283355913
 40
0.3360911324591516
 40
0.479406311793364
 40
0.6228424992071531
 40
0.7660971404983481
 40
0.9091546871051831
 40
0.9999999999999999
 40
0.9999999999999999
 40
0.9999999999999999
 40
0.9999999999999999
 10
-321.3013573800114
 20
224.9537061001034
 30
0.0
 10
-321.276857110906
 20
224.9554390836203
 30
0.0
 10
-321.1826535557433
 20
224.9621024066894
 30
0.0
 10
-321.83497913856
 20
224.9156801087426
 30
0.0
 10
-323.1873332992436
 20
224.8304027796523
 30
0.0
 10
-325.1586227007519
 20
224.7311417998457
 30
0.0
 10
-327.4645650783897
 20
224.6539143595801
 30
0.0
 10
-329.8490978950249
 20
224.6177229774792
 30
0.0
 10
-331.8083407615508
 20
224.6228484766651
 30
0.0
 10
-332.7738859271071
 20
224.638627761125
 30
0.0
 10
-333.1488931111404
 20
224.6447562626621
 30
0.0
  0
LINE
  5
CC
330
1F
100
AcDbEntity
  8
0
  6
Continuous
 62
     7
370
    25
100
AcDbLine
 10
-133.2110332541
 20
238.9649519231
 30
0.0
 11
-147.2110332541
 21
238.9649519231
 31
0.0
  0
LINE
  5
CD
330
1F
100
AcDbEntity
  8
0
  6
Continuous
 62
     7
370
    25
100
AcDbLine
 10
-321.2110332541
 20
238.9649519231
 30
0.0
 11
-335.2110332541
 21
238.9649519231
 31
0.0
  0
LINE
  5
CE
330
1F
100
AcDbEntity
  8
0
  6
Continuous
 62
     1
370
    25
100
AcDbLine
 10
-221.7110332541
 20
225.5949519231
 30
0.0
 11
-221.7110332541
 21
-33.8050480769
 31
0.0
  0
LINE
  5
CF
330
1F
100
AcDbEntity
  8
0
  6
Continuous
 62
     1
370
    25
100
AcDbLine
 10
-246.7110332541
 20
225.5949519231
 30
0.0
 11
-246.7110332541
 21
-33.8050480769
 31
0.0
  0
ARC
  5
D0
330
1F
100
AcDbEntity
  8
0
  6
Continuous
 62
     7
370
    25
100
AcDbCircle
 10
-4104.4612125039
 20
-272.8365802626
 30
0.0
 40
4371.625000000019
100
AcDbArc
 50
0.0
 51
1.2255314445
  0
ARC
  5
D1
330
1F
100
AcDbEntity
  8
0
  6
Continuous
 62
     7
370
    25
100
AcDbCircle
 10
4379.3887874962
 20
-272.8365802626
 30
0.0
 40
4371.62500000002
100
AcDbArc
 50
178.7744685555
 51
180.0
  0
LINE
  5
D2
330
1F
100
AcDbEntity
  8
0
  6
Continuous
 62
     7
370
    25
100
AcDbLine
 10
7.7637874962
 20
-272.8365802626
 30
0.0
 11
7.7637874962
 21
-297.8365802626
 31
0.0
  0
LINE
  5
D3
330
1F
100
AcDbEntity
  8
0
  6
Continuous
 62
     7
370
    25
100
AcDbLine
 10
267.1637874962
 20
-297.8365802626
 30
0.0
 11
267.1637874962
 21
-272.8365802626
 31
0.0
  0
ARC
  5
D4
330
1F
100
AcDbEntity
  8
0
  6
Continuous
 62
     7
370
    25
100
AcDbCircle
 10
-4104.4612125039
 20
-297.8365802626
 30
0.0
 40
4371.625000000019
100
AcDbArc
 50
358.7744685555
 51
0.0
  0
ARC
  5
D5
330
1F
100
AcDbEntity
  8
0
  6
Continuous
 62
     7
370
    25
100
AcDbCircle
 10
4379.3887874962
 20
-297.8365802626
 30
0.0
 40
4371.62500000002
100
AcDbArc
 50
180.0
 51
181.2255314445
  0
CIRCLE
  5
D6
330
1F
100
AcDbEntity
  8
0
  6
Continuous
 62
     7
370
    25
100
AcDbCircle
 10
137.4637874962
 20
-191.3365802626
 30
0.0
 40
5.0
  0
CIRCLE
  5
D7
330
1F
100
AcDbEntity
  8
0
  6
Continuous
 62
     7
370
    25
100
AcDbCircle
 10
137.4637874962
 20
-191.3365802626
 30
0.0
 40
7.000000000000028
  0
CIRCLE
  5
D8
330
1F
100
AcDbEntity
  8
0
  6
Continuous
 62
     7
370
    25
100
AcDbCircle
 10
137.4637874962
 20
-379.3365802626
 30
0.0
 40
7.000000000000057
  0
CIRCLE
  5
D9
330
1F
100
AcDbEntity
  8
0
  6
Continuous
 62
     7
370
    25
100
AcDbCircle
 10
137.4637874962
 20
-379.3365802626
 30
0.0
 40
5.0
  0
LINE
  5
DA
330
1F
100
AcDbEntity
  8
0
  6
Continuous
 62
     7
370
    25
100
AcDbLine
 10
8.7637874962
 20
-179.3365802626
 30
0.0
 11
266.1637874962
 21
-179.3365802626
 31
0.0
  0
LINE
  5
DB
330
1F
100
AcDbEntity
  8
0
  6
Continuous
 62
     7
370
    25
100
AcDbLine
 10
8.7637874962
 20
-391.3365802626
 30
0.0
 11
266.1637874962
 21
-391.3365802626
 31
0.0
  0
LINE
  5
DC
330
1F
100
AcDbEntity
  8
0
  6
Continuous
 62
     1
370
    25
100
AcDbLine
 10
7.7637874962
 20
-272.8365802626
 30
0.0
 11
267.1637874962
 21
-272.8365802626
 31
0.0
  0
LINE
  5
DD
330
1F
100
AcDbEntity
  8
0
  6
Continuous
 62
     1
370
    25
100
AcDbLine
 10
7.7637874962
 20
-297.8365802626
 30
0.0
 11
267.1637874962
 21
-297.8365802626
 31
0.0
  0
INSERT
  5
E9
330
1F
100
AcDbEntity
  8
FORMAT
 62
     7
100
AcDbBlockReference
  2
SW_CENTERMARKSYMBOL_1
 10
137.4637874962
 20
-191.3365802626
 30
0.0
  0
INSERT
  5
F5
330
1F
100
AcDbEntity
  8
FORMAT
 62
     7
100
AcDbBlockReference
  2
SW_CENTERMARKSYMBOL_2
 10
137.4637874962
 20
-379.3365802626
 30
0.0
  0
SPLINE
  5
F6
330
1F
100
AcDbEntity
  8
0
  6
Continuous
 62
     7
370
    25
100
AcDbSpline
210
0.0
220
0.0
230
1.0
 70
     8
 71
     3
 72
    10
 73
     6
 74
     0
 42
0.00000001
 43
0.00000001
 40
0.0
 40
0.0
 40
0.0
 40
0.0
 40
0.3611544647564034
 40
0.7231768139810799
 40
0.9999999999999999
 40
0.9999999999999999
 40
0.9999999999999999
 40
0.9999999999999999
 10
469.5592055214963
 20
-195.8389188952015
 30
0.0
 10
461.494868555061
 20
-200.5255042015667
 30
0.0
 10
445.3468153441167
 20
-209.9099370718447
 30
0.0
 10
423.1614604227023
 20
-223.1307876011394
 30
0.0
 10
409.0889204539088
 20
-231.7373979511178
 30
0.0
 10
402.991037421738
 20
-235.4667960081864
 30
0.0
  0
SPLINE
  5
F7
330
1F
100
AcDbEntity
  8
0
  6
Continuous
 62
     7
370
    25
100
AcDbSpline
210
0.0
220
0.0
230
1.0
 70
     8
 71
     3
 72
    11
 73
     7
 74
     0
 42
0.00000001
 43
0.00000001
 40
0.0
 40
0.0
 40
0.0
 40
0.0
 40
0.2748444834738772
 40
0.6369723258533881
 40
0.9990784444106019
 40
1.0
 40
1.0
 40
1.0
 40
1.0
 10
531.6409322483709
 20
-458.3209069211565
 30
0.0
 10
537.876272498807
 20
-454.9314986290241
 30
0.0
 10
552.3271326056099
 20
-447.0762953670983
 30
0.0
 10
574.8310067509575
 20
-434.453910592179
 30
0.0
 10
591.1308057937596
 20
-425.2288892672635
 30
0.0
 10
599.2283881488565
 20
-420.5030490473695
 30
0.0
 10
599.2489440811213
 20
-420.4910523738941
 30
0.0
  0
LINE
  5
F8
330
1F
100
AcDbEntity
  8
0
  6
Continuous
 62
     7
370
    25
100
AcDbLine
 10
487.2370428016
 20
-185.6333302807
 30
0.0
 11
469.5593732719
 21
-195.8384316785
 31
0.0
  0
LINE
  5
F9
330
1F
100
AcDbEntity
  8
0
  6
Continuous
 62
     7
370
    25
100
AcDbLine
 10
599.2488328948
 20
-420.49150658
 30
0.0
 11
616.9265024245
 21
-410.2864051823
 31
0.0
  0
LINE
  5
FA
330
1F
100
AcDbEntity
  8
0
  6
Continuous
 62
     7
370
    25
100
AcDbLine
 10
483.7749004166
 20
-236.1532600885
 30
0.0
 11
483.7749004166
 21
-224.6111057295
 31
0.0
  0
LINE
  5
FB
330
1F
100
AcDbEntity
  8
0
  6
Continuous
 62
     7
370
    25
100
AcDbLine
 10
469.7749004166
 20
-224.6111057295
 30
0.0
 11
469.7749004166
 21
-236.3032567735
 31
0.0
  0
SPLINE
  5
FC
330
1F
100
AcDbEntity
  8
0
  6
Continuous
 62
     7
370
    25
100
AcDbSpline
210
0.0
220
0.0
230
1.0
 70
     8
 71
     3
 72
    11
 73
     7
 74
     0
 42
0.00000001
 43
0.00000001
 40
0.0
 40
0.0
 40
0.0
 40
0.0
 40
0.2748518760039095
 40
0.6369756045930716
 40
0.9990776096095427
 40
1.0
 40
1.0
 40
1.0
 40
1.0
 10
554.8456583600723
 20
-147.8035395576229
 30
0.0
 10
548.6100794327351
 20
-151.1930772824869
 30
0.0
 10
534.1589804809056
 20
-159.0484096636112
 30
0.0
 10
511.6548687291288
 20
-171.6709258721253
 30
0.0
 10
495.3550509992884
 20
-180.8959585132293
 30
0.0
 10
487.2574498378461
 20
-185.6218098200079
 30
0.0
 10
487.2368750511608
 20
-185.6338174974182
 30
0.0
  0
SPLINE
  5
FD
330
1F
100
AcDbEntity
  8
0
  6
Continuous
 62
     7
370
    25
100
AcDbSpline
210
0.0
220
0.0
230
1.0
 70
     8
 71
     3
 72
    10
 73
     6
 74
     0
 42
0.00000001
 43
0.00000001
 40
0.0
 40
0.0
 40
0.0
 40
0.0
 40
0.3611518387871969
 40
0.7231707084097794
 40
1.0
 40
1.0
 40
1.0
 40
1.0
 10
616.9266136107865
 20
-410.2859509761093
 30
0.0
 10
624.9909695011042
 20
-405.599354779691
 30
0.0
 10
641.1390416849646
 20
-396.2149110986734
 30
0.0
 10
663.3246093345741
 20
-382.993932684373
 30
0.0
 10
677.3973421599867
 20
-374.3872038339669
 30
0.0
 10
683.4954181901369
 20
-370.6576875025057
 30
0.0
  0
LINE
  5
FE
330
1F
100
AcDbEntity
  8
0
  6
Continuous
 62
     7
370
    25
100
AcDbLine
 10
616.7109752797
 20
-159.5615861736
 30
0.0
 11
616.7109752797
 21
-147.8687432182
 31
0.0
  0
LINE
  5
FF
330
1F
100
AcDbEntity
  8
0
  6
Continuous
 62
     7
370
    25
100
AcDbLine
 10
602.7109752797
 20
-147.8687432182
 30
0.0
 11
602.7109752797
 21
-159.412072783
 31
0.0
  0
LWPOLYLINE
  5
100
330
1F
100
AcDbEntity
  8
0
  6
Continuous
 62
     7
370
    25
100
AcDbPolyline
 90
      132
 70
   128
 43
0.0
 10
377.2849763037
 20
-293.7961863612
 10
377.389633101
 20
-288.8181356219
 10
377.7033627789
 20
-283.9723687251
 10
378.225443749
 20
-279.2700310897
 10
378.9546752085
 20
-274.721938243
 10
379.8893799016
 20
-270.3385509444
 10
381.0274079775
 20
-266.1299511251
 10
382.3661419353
 20
-262.1058186996
 10
383.9025026438
 20
-258.2754093013
 10
385.6329564243
 20
-254.6475329947
 10
387.5535231776
 20
-251.2305340114
 10
389.6597855386
 20
-248.0322715587
 10
391.9468990363
 20
-245.0601017428
 10
394.4096032366
 20
-242.3208606493
 10
397.0422338406
 20
-239.8208486207
 10
399.8387357138
 20
-237.5658157646
 10
402.7926768123
 20
-235.560948729
 10
405.8972629767
 20
-233.8108587722
 10
409.1453535594
 20
-232.3195711573
 10
412.5294778481
 20
-231.0905158935
 10
416.0418522484
 20
-230.1265198473
 10
419.6743981866
 20
-229.4298002405
 10
423.4187606906
 20
-229.0019595506
 10
427.2663276068
 20
-228.8439818249
 10
431.2082494079
 20
-228.9562304171
 10
435.2354595474
 20
-229.338447152
 10
439.338695313
 20
-229.9897529187
 10
443.508519131
 20
-230.9086496932
 10
447.7353402728
 20
-232.0930239834
 10
452.0094369145
 20
-233.5401516906
 10
456.3209784968
 20
-235.2467043745
 10
460.6600483359
 20
-237.2087569093
 10
465.0166664321
 20
-239.4217965114
 10
469.3808124242
 20
-241.8807331187
 10
473.7424486366
 20
-244.5799110982
 10
478.0915431661
 20
-247.5131222542
 10
482.4180929561
 20
-250.6736201068
 10
486.7121468033
 20
-254.0541354099
 10
490.9638282462
 20
-257.6468928698
 10
495.1633582815
 20
-261.4436290293
 10
499.3010778552
 20
-265.4356112736
 10
503.36747008
 20
-269.6136579154
 10
507.3531821233
 20
-273.9681593138
 10
511.2490467196
 20
-278.4890999759
 10
515.0461032557
 20
-283.1660815934
 10
518.7356183797
 20
-287.9883469586
 10
522.3091060887
 20
-292.9448047066
 10
525.7583472464
 20
-298.0240548259
 10
529.0754084877
 20
-303.2144148783
 10
532.2526604653
 20
-308.5039468695
 10
535.2827953979
 20
-313.8804847063
 10
538.158843878
 20
-319.3316621794
 10
540.8741909021
 20
-324.844941406
 10
543.4225910849
 20
-330.4076416671
 10
545.7981830243
 20
-336.0069685739
 10
547.9955027827
 20
-341.6300434951
 10
550.0094964544
 20
-347.2639331781
 10
551.8355317892
 20
-352.8956794962
 10
553.4694088474
 20
-358.5123292524
 10
554.9073696595
 20
-364.1009639721
 10
556.1461068695
 20
-369.6487296165
 10
557.182771342
 20
-375.1428661469
 10
558.0149787157
 20
-380.5707368731
 10
558.6408148868
 20
-385.9198575184
 10
559.0588404121
 20
-391.1779249341
 10
559.2680938195
 20
-396.3328453966
 10
559.2680938195
 20
-401.3727624236
 10
559.0588404121
 20
-406.2860840444
 10
558.6408148868
 20
-411.0615094619
 10
558.0149787157
 20
-415.6880550446
 10
557.182771342
 20
-420.1550795893
 10
556.1461068695
 20
-424.4523087965
 10
554.9073696595
 20
-428.5698589013
 10
553.4694088474
 20
-432.4982594065
 10
551.8355317892
 20
-436.2284748651
 10
550.0094964544
 20
-439.7519256619
 10
547.9955027827
 20
-443.0605077473
 10
545.7981830243
 20
-446.1466112763
 10
543.4225910849
 20
-449.003138112
 10
540.8741909021
 20
-451.6235181512
 10
538.158843878
 20
-454.0017244357
 10
535.2827953979
 20
-456.1322870149
 10
532.2526604653
 20
-458.0103055265
 10
529.0754084877
 20
-459.631460468
 10
525.7583472464
 20
-460.9920231308
 10
522.3091060887
 20
-462.0888641773
 10
518.7356183797
 20
-462.919460838
 10
515.0461032557
 20
-463.4819027139
 10
511.2490467196
 20
-463.7748961706
 10
507.3531821233
 20
-463.7977673138
 10
503.36747008
 20
-463.5504635392
 10
499.3010778552
 20
-463.0335536534
 10
495.1633582815
 20
-462.2482265656
 10
490.9638282462
 20
-461.1962885534
 10
486.7121468033
 20
-459.8801591078
 10
482.4180929561
 20
-458.3028653689
 10
478.0915431661
 20
-456.4680351626
 10
473.7424486366
 20
-454.3798886573
 10
469.3808124242
 20
-452.0432286569
 10
465.0166664321
 20
-449.4634295542
 10
460.6600483359
 20
-446.6464249699
 10
456.3209784968
 20
-443.5986941048
 10
452.0094369145
 20
-440.3272468375
 10
447.7353402728
 20
-436.8396076016
 10
443.508519131
 20
-433.1437980791
 10
439.338695313
 20
-429.2483187502
 10
435.2354595474
 20
-425.1621293424
 10
431.2082494079
 20
-420.8946282222
 10
427.2663276068
 20
-416.4556307789
 10
423.4187606906
 20
-411.8553468489
 10
419.6743981866
 20
-407.1043572326
 10
416.0418522484
 20
-402.2135893584
 10
412.5294778481
 20
-397.1942921492
 10
409.1453535594
 20
-392.0580101494
 10
405.8972629767
 20
-386.8165569721
 10
402.7926768123
 20
-381.4819881277
 10
399.8387357138
 20
-376.0665732954
 10
397.0422338406
 20
-370.5827681029
 10
394.4096032366
 20
-365.0431854778
 10
391.9468990363
 20
-359.4605666378
 10
389.6597855386
 20
-353.847751785
 10
387.5535231776
 20
-348.2176505735
 10
385.6329564243
 20
-342.5832124164
 10
383.9025026438
 20
-336.9573967022
 10
382.3661419353
 20
-331.3531429872
 10
381.0274079775
 20
-325.7833412345
 10
379.8893799016
 20
-320.2608021667
 10
378.9546752085
 20
-314.7982278006
 10
378.225443749
 20
-309.4081822323
 10
377.7033627789
 20
-304.1030627393
 10
377.389633101
 20
-298.8950712665
 10
377.2849763037
 20
-293.7961863612
  0
SPLINE
  5
101
330
1F
100
AcDbEntity
  8
0
  6
Continuous
 62
     7
370
    25
100
AcDbSpline
210
0.0
220
0.0
230
1.0
 70
     8
 71
     3
 72
    12
 73
     8
 74
     0
 42
0.00000001
 43
0.00000001
 40
0.0
 40
0.0
 40
0.0
 40
0.0
 40
0.2144225650415451
 40
0.4288473206310415
 40
0.6431979381542259
 40
0.8574864539002202
 40
1.0
 40
1.0
 40
1.0
 40
1.0
 10
476.7916918981438
 20
-240.3451322787195
 30
0.0
 10
476.0048164909488
 20
-240.2922528404425
 30
0.0
 10
474.4310576378141
 20
-240.1864934236705
 30
0.0
 10
472.3266573171829
 20
-239.4738767795145
 30
0.0
 10
470.7544312598845
 20
-238.4540531885499
 30
0.0
 10
469.8596289574897
 20
-237.3410634436794
 30
0.0
 10
469.8623024115349
 20
-236.5974436130776
 30
0.0
 10
469.8633702400513
 20
-236.3004276752745
 30
0.0
  0
SPLINE
  5
102
330
1F
100
AcDbEntity
  8
0
  6
Continuous
 62
     7
370
    25
100
AcDbSpline
210
0.0
220
0.0
230
1.0
 70
     8
 71
     3
 72
    13
 73
     9
 74
     0
 42
0.00000001
 43
0.00000001
 40
0.0
 40
0.0
 40
0.0
 40
0.0
 40
0.0035145022561763
 40
0.2186215821511607
 40
0.4339102875708271
 40
0.6489265036667604
 40
0.8636468930246436
 40
1.0
 40
1.0
 40
1.0
 40
1.0
 10
483.7685693862842
 20
-236.153860228358
 30
0.0
 10
483.770675199187
 20
-236.1615217456591
 30
0.0
 10
483.901668470768
 20
-236.6381107224055
 30
0.0
 10
483.4343948910907
 20
-237.6229832400456
 30
0.0
 10
482.3359685105164
 20
-238.8876650974122
 30
0.0
 10
480.517774293657
 20
-239.8269225513018
 30
0.0
 10
478.5708542589827
 20
-240.2952788713231
 30
0.0
 10
477.2893961967342
 20
-240.3311862467515
 30
0.0
 10
476.7916918981438
 20
-240.3451322787196
 30
0.0
  0
LWPOLYLINE
  5
103
330
1F
100
AcDbEntity
  8
0
  6
Continuous
 62
     7
370
    25
100
AcDbPolyline
 90
      124
 70
   128
 43
0.0
 10
388.2451314121
 20
-300.1233492278
 10
388.3495448765
 20
-295.4639715811
 10
388.662512867
 20
-290.9373029386
 10
389.1832188858
 20
-286.5551528621
 10
389.9103044704
 20
-282.3289538806
 10
390.8418727375
 20
-278.2697316649
 10
391.9754933318
 20
-274.3880762622
 10
393.3082087666
 20
-270.6941144682
 10
394.8365421396
 20
-267.1974834075
 10
396.5565062035
 20
-263.9073053913
 10
398.4636137684
 20
-260.8321641184
 10
400.5528894085
 20
-257.9800822812
 10
402.818882442
 20
-255.3585006356
 10
405.2556811521
 20
-252.9742585888
 10
407.8569282089
 20
-250.8335763561
 10
410.615837256
 20
-248.9420387329
 10
413.5252106148
 20
-247.304580525
 10
416.5774580621
 20
-245.9254736738
 10
419.7646166331
 20
-244.8083161118
 10
423.0783713948
 20
-243.9560223753
 10
426.5100771395
 20
-243.3708160015
 10
430.0507809387
 20
-243.054223727
 10
433.6912455005
 20
-243.0070715048
 10
437.4219732684
 20
-243.2294823498
 10
441.2332311998
 20
-243.7208760173
 10
445.1150761578
 20
-244.4799705175
 10
449.0573808521
 20
-245.5047854595
 10
453.0498602599
 20
-246.7926472181
 10
457.0820984584
 20
-248.340195909
 10
461.1435757984
 20
-250.1433941543
 10
465.2236963493
 20
-252.1975376158
 10
469.3118155425
 20
-254.4972672677
 10
473.3972679417
 20
-257.036583378
 10
477.4693950681
 20
-259.8088611607
 10
481.517573207
 20
-262.8068680597
 10
485.5312411238
 20
-266.0227826174
 10
489.4999276172
 20
-269.4482148797
 10
493.4132788374
 20
-273.0742282852
 10
497.2610852977
 20
-276.8913629787
 10
501.0333085104
 20
-280.8896604918
 10
504.720107176
 20
-285.0586897227
 10
508.3118628576
 20
-289.3875741501
 10
511.7992050747
 20
-293.865020209
 10
515.1730357498
 20
-298.4793467537
 10
518.4245529437
 20
-303.2185155331
 10
521.5452738194
 20
-308.070162597
 10
524.5270567725
 20
-313.0216305522
 10
527.3621226716
 20
-318.0600015841
 10
530.0430751536
 20
-323.172131158
 10
532.5629199195
 20
-328.3446823114
 10
534.915082982
 20
-333.5641604492
 10
537.0934278163
 20
-338.8169485486
 10
539.0922713694
 20
-344.0893426854
 10
540.9063988867
 20
-349.3675877852
 10
542.5310775167
 20
-354.6379135093
 10
543.9620686583
 20
-359.8865701795
 10
545.1956390191
 20
-365.0998646499
 10
546.2285703547
 20
-370.2641960305
 10
547.0581678653
 20
-375.3660911704
 10
547.6822672257
 20
-380.3922398076
 10
548.0992402319
 20
-385.3295292942
 10
548.3079990489
 20
-390.1650788058
 10
548.3079990489
 20
-394.8862729457
 10
548.0992402319
 20
-399.4807946575
 10
547.6822672257
 20
-403.9366573586
 10
547.0581678653
 20
-408.2422362121
 10
546.2285703547
 20
-412.3862984543
 10
545.1956390191
 20
-416.3580326999
 10
543.9620686583
 20
-420.1470771478
 10
542.5310775167
 20
-423.7435466137
 10
540.9063988867
 20
-427.1380583194
 10
539.0922713694
 20
-430.3217563714
 10
537.0934278163
 20
-433.286334865
 10
534.915082982
 20
-436.0240595534
 10
532.5629199195
 20
-438.5277880255
 10
530.0430751536
 20
-440.7909883396
 10
527.3621226716
 20
-442.8077560644
 10
524.5270567725
 20
-444.5728296833
 10
521.5452738194
 20
-446.0816043206
 10
518.4245529437
 20
-447.3301437557
 10
515.1730357498
 20
-448.3151906918
 10
511.7992050747
 20
-449.0341752537
 10
508.3118628576
 20
-449.485221693
 10
504.720107176
 20
-449.6671532808
 10
501.0333085104
 20
-449.5794953786
 10
497.2610852977
 20
-449.2224766757
 10
493.4132788374
 20
-448.5970285933
 10
489.4999276172
 20
-447.7047828538
 10
485.5312411238
 20
-446.5480672246
 10
481.517573207
 20
-445.1298994447
 10
477.4693950681
 20
-443.4539793519
 10
473.3972679417
 20
-441.5246792304
 10
469.3118155425
 20
-439.3470324039
 10
465.2236963493
 20
-436.9267201043
 10
461.1435757984
 20
-434.2700566501
 10
457.0820984584
 20
-431.3839729728
 10
453.0498602599
 20
-428.2759985354
 10
449.0573808521
 20
-424.9542416881
 10
445.1150761578
 20
-421.4273685154
 10
441.2332311998
 20
-417.7045802267
 10
437.4219732684
 20
-413.7955891516
 10
433.6912455005
 20
-409.7105934014
 10
430.0507809387
 20
-405.4602502636
 10
426.5100771395
 20
-401.0556483982
 10
423.0783713948
 20
-396.5082789086
 10
419.7646166331
 20
-391.8300053625
 10
416.5774580621
 20
-387.0330328415
 10
413.5252106148
 20
-382.1298760991
 10
410.615837256
 20
-377.1333269115
 10
407.8569282089
 20
-372.056420705
 10
405.2556811521
 20
-366.9124025482
 10
402.818882442
 20
-361.7146925972
 10
400.5528894085
 20
-356.4768510837
 10
398.4636137684
 20
-351.2125429382
 10
396.5565062035
 20
-345.9355021395
 10
394.8365421396
 20
-340.6594958847
 10
393.3082087666
 20
-335.3982886716
 10
391.9754933318
 20
-330.1656063892
 10
390.8418727375
 20
-324.9751005079
 10
389.9103044704
 20
-319.8403124651
 10
389.1832188858
 20
-314.7746383364
 10
388.662512867
 20
-309.7912938874
 10
388.3495448765
 20
-304.9032800945
 10
388.2451314121
 20
-300.1233492278
  0
LWPOLYLINE
  5
104
330
1F
100
AcDbEntity
  8
0
  6
Continuous
 62
     7
370
    25
100
AcDbPolyline
 90
       31
 70
   128
 43
0.0
 10
481.7246478849
 20
-221.7536773382
 10
482.6455943923
 20
-222.4102117725
 10
483.3099634021
 20
-223.1629358338
 10
483.6887188008
 20
-223.9789518686
 10
483.7653071599
 20
-224.8225960606
 10
483.5363812007
 20
-225.6569971103
 10
483.011946086
 20
-226.4456876879
 10
482.2149221468
 20
-227.1541982306
 10
481.180143154
 20
-227.7515634279
 10
479.9528339148
 20
-228.2116755542
 10
478.5866337324
 20
-228.5144255017
 10
477.1412521103
 20
-228.6465816449
 10
475.6798591614
 20
-228.6023681263
 10
474.2663247698
 20
-228.3837172888
 10
472.9624271715
 20
-228.0001852231
 10
471.8251529483
 20
-227.4685341209
 10
470.904206441
 20
-226.8119996866
 10
470.2398374312
 20
-226.0592756253
 10
469.8610820325
 20
-225.2432595904
 10
469.7844936734
 20
-224.3996153985
 10
470.0134196326
 20
-223.5652143488
 10
470.5378547473
 20
-222.7765237712
 10
471.3348786864
 20
-222.0680132285
 10
472.3696576793
 20
-221.4706480312
 10
473.5969669185
 20
-221.0105359049
 10
474.9631671009
 20
-220.7077859574
 10
476.4085487229
 20
-220.5756298142
 10
477.8699416719
 20
-220.6198433328
 10
479.2834760635
 20
-220.8384941703
 10
480.5873736617
 20
-221.222026236
 10
481.7246478849
 20
-221.7536773382
  0
LWPOLYLINE
  5
105
330
1F
100
AcDbEntity
  8
0
  6
Continuous
 62
     7
370
    25
100
AcDbPolyline
 90
       26
 70
   128
 43
0.0
 10
480.3104343226
 20
-222.57008545
 10
481.0786105517
 20
-223.1417889583
 10
481.576368845
 20
-223.8058150431
 10
481.7724332185
 20
-224.5204405033
 10
481.6544842263
 20
-225.2407627932
 10
481.2299330376
 20
-225.9215214141
 10
480.5254557648
 20
-226.5199417981
 10
479.5853173059
 20
-226.9984229917
 10
478.4685900179
 20
-227.3269002618
 10
477.2454419832
 20
-227.4847341735
 10
475.9927280914
 20
-227.4620074415
 10
474.7891609635
 20
-227.2601480701
 10
473.7103651484
 20
-226.891839626
 10
472.8241253548
 20
-226.3802242832
 10
472.1861272882
 20
-225.7574487153
 10
471.8364587137
 20
-225.0626442016
 10
471.7970905936
 20
-224.3394678651
 10
472.0704965719
 20
-223.6333595347
 10
472.6394975453
 20
-222.9886865935
 10
473.46834109
 20
-222.4459562136
 10
474.5049479179
 20
-222.0392701405
 10
475.6841842097
 20
-221.7941819561
 10
476.931954212
 20
-221.7260914523
 10
478.1698559468
 20
-221.8392770059
 10
479.3201074954
 20
-222.1266267522
 10
480.3104343226
 20
-222.57008545
  0
LWPOLYLINE
  5
106
330
1F
100
AcDbEntity
  8
0
  6
Continuous
 62
     7
370
    25
100
AcDbPolyline
 90
       15
 70
   128
 43
0.0
 10
554.8319968972
 20
-147.7832544248
 10
555.8039005882
 20
-147.271598919
 10
559.051991171
 20
-145.780311304
 10
562.4361154596
 20
-144.5512560402
 10
565.9484898599
 20
-143.5872599941
 10
569.5810357981
 20
-142.8905403873
 10
573.3253983022
 20
-142.4626996974
 10
577.1729652183
 20
-142.3047219717
 10
581.1148870194
 20
-142.4169705639
 10
585.142097159
 20
-142.7991872988
 10
589.2453329246
 20
-143.4504930655
 10
593.4151567425
 20
-144.36938984
 10
597.6419778844
 20
-145.5537641302
 10
601.9160745261
 20
-147.0008918373
 10
602.7754653114
 20
-147.3214752344
  0
LWPOLYLINE
  5
107
330
1F
100
AcDbEntity
  8
0
  6
Continuous
 62
     7
370
    25
100
AcDbPolyline
 90
       51
 70
   128
 43
0.0
 10
616.7109752797
 20
-153.8605486752
 10
619.2874500358
 20
-155.3414732655
 10
623.6490862481
 20
-158.040651245
 10
627.9981807777
 20
-160.973862401
 10
632.3247305676
 20
-164.1343602536
 10
636.6187844148
 20
-167.5148755567
 10
640.8704658578
 20
-171.1076330166
 10
645.069995893
 20
-174.9043691761
 10
649.2077154668
 20
-178.8963514204
 10
653.2741076915
 20
-183.0743980622
 10
657.2598197348
 20
-187.4288994606
 10
661.1556843312
 20
-191.9498401227
 10
664.9527408672
 20
-196.6268217402
 10
668.6422559913
 20
-201.4490871054
 10
672.2157437003
 20
-206.4055448534
 10
675.664984858
 20
-211.4847949727
 10
678.9820460992
 20
-216.6751550251
 10
682.1592980768
 20
-221.9646870163
 10
685.1894330094
 20
-227.3412248531
 10
688.0654814896
 20
-232.7924023262
 10
690.7808285136
 20
-238.3056815528
 10
693.3292286964
 20
-243.8683818139
 10
695.7048206358
 20
-249.4677087207
 10
697.9021403943
 20
-255.0907836419
 10
699.9161340659
 20
-260.7246733249
 10
701.7421694007
 20
-266.356419643
 10
703.376046459
 20
-271.9730693992
 10
704.8140072711
 20
-277.5617041189
 10
706.052744481
 20
-283.1094697633
 10
707.0894089536
 20
-288.6036062937
 10
707.9216163272
 20
-294.0314770198
 10
708.5474524983
 20
-299.3805976652
 10
708.9654780237
 20
-304.6386650809
 10
709.1747314311
 20
-309.7935855434
 10
709.1747314311
 20
-314.8335025704
 10
708.9654780237
 20
-319.7468241912
 10
708.5474524983
 20
-324.5222496087
 10
707.9216163272
 20
-329.1487951914
 10
707.0894089536
 20
-333.6158197361
 10
706.052744481
 20
-337.9130489433
 10
704.8140072711
 20
-342.0305990481
 10
703.376046459
 20
-345.9589995533
 10
701.7421694007
 20
-349.6892150119
 10
699.9161340659
 20
-353.2126658087
 10
697.9021403943
 20
-356.5212478941
 10
695.7048206358
 20
-359.6073514231
 10
693.3292286964
 20
-362.4638782588
 10
690.7808285136
 20
-365.0842582979
 10
688.0654814896
 20
-367.4624645825
 10
685.1894330094
 20
-369.5930271617
 10
683.506960573
 20
-370.6786594321
  0
SPLINE
  5
108
330
1F
100
AcDbEntity
  8
0
  6
Continuous
 62
     7
370
    25
100
AcDbSpline
210
0.0
220
0.0
230
1.0
 70
     8
 71
     3
 72
    12
 73
     8
 74
     0
 42
0.00000001
 43
0.00000001
 40
0.0
 40
0.0
 40
0.0
 40
0.0
 40
0.2136453644895981
 40
0.4273046027703384
 40
0.6406139054557118
 40
0.8537132076919823
 40
1.0
 40
1.0
 40
1.0
 40
1.0
 10
609.7649401915563
 20
-163.4533903332781
 30
0.0
 10
608.9781069986207
 20
-163.3876173921502
 30
0.0
 10
607.4043895170498
 20
-163.2560672387038
 30
0.0
 10
605.2945059076662
 20
-162.5304245251974
 30
0.0
 10
603.7127805477993
 20
-161.5202905895046
 30
0.0
 10
602.8035633262015
 20
-160.4260341463658
 30
0.0
 10
602.7984036066998
 20
-159.7032226459296
 30
0.0
 10
602.7963033617917
 20
-159.4090048744373
 30
0.0
  0
SPLINE
  5
109
330
1F
100
AcDbEntity
  8
0
  6
Continuous
 62
     7
370
    25
100
AcDbSpline
210
0.0
220
0.0
230
1.0
 70
     8
 71
     3
 72
    13
 73
     9
 74
     0
 42
0.00000001
 43
0.00000001
 40
0.0
 40
0.0
 40
0.0
 40
0.0
 40
0.0001891065603563
 40
0.2159104858560355
 40
0.4315327537797816
 40
0.6469649320613613
 40
0.8624702319104458
 40
1.0
 40
1.0
 40
1.0
 40
1.0
 10
616.7106297610189
 20
-159.5616200684589
 30
0.0
 10
616.7107449224866
 20
-159.5620186900369
 30
0.0
 10
616.8422293532125
 20
-160.0171408096172
 30
0.0
 10
616.3813201231104
 20
-160.9518738226906
 30
0.0
 10
615.2970367622787
 20
-162.1507950719001
 30
0.0
 10
613.4894818408121
 20
-163.0225261329946
 30
0.0
 10
611.5476255785914
 20
-163.4386269411075
 30
0.0
 10
610.2647157356834
 20
-163.4492514188017
 30
0.0
 10
609.7649401915563
 20
-163.4533903332781
 30
0.0
  0
LWPOLYLINE
  5
10A
330
1F
100
AcDbEntity
  8
0
  6
Continuous
 62
     7
370
    25
100
AcDbPolyline
 90
       31
 70
   128
 43
0.0
 10
604.7612278114
 20
-150.7261716096
 10
603.8402813041
 20
-150.0696371753
 10
603.1759122942
 20
-149.316913114
 10
602.7971568955
 20
-148.5008970791
 10
602.7205685364
 20
-147.6572528871
 10
602.9494944957
 20
-146.8228518375
 10
603.4739296104
 20
-146.0341612599
 10
604.2709535495
 20
-145.3256507172
 10
605.3057325424
 20
-144.7282855199
 10
606.5330417815
 20
-144.2681733936
 10
607.899241964
 20
-143.9654234461
 10
609.344623586
 20
-143.8332673028
 10
610.806016535
 20
-143.8774808214
 10
612.2195509265
 20
-144.096131659
 10
613.5234485248
 20
-144.4796637247
 10
614.660722748
 20
-145.0113148268
 10
615.5816692553
 20
-145.6678492612
 10
616.2460382652
 20
-146.4205733225
 10
616.6247936639
 20
-147.2365893573
 10
616.701382023
 20
-148.0802335493
 10
616.4724560637
 20
-148.9146345989
 10
615.948020949
 20
-149.7033251765
 10
615.1509970099
 20
-150.4118357192
 10
614.1162180171
 20
-151.0092009165
 10
612.8889087779
 20
-151.4693130428
 10
611.5227085954
 20
-151.7720629903
 10
610.0773269734
 20
-151.9042191336
 10
608.6159340244
 20
-151.860005615
 10
607.2023996329
 20
-151.6413547774
 10
605.8985020346
 20
-151.2578227117
 10
604.7612278114
 20
-150.7261716096
  0
LWPOLYLINE
  5
10B
330
1F
100
AcDbEntity
  8
0
  6
Continuous
 62
     7
370
    25
100
AcDbPolyline
 90
       26
 70
   128
 43
0.0
 10
606.1754413738
 20
-149.9097634978
 10
605.4072651447
 20
-149.3380599895
 10
604.9095068513
 20
-148.6740339047
 10
604.7134424779
 20
-147.9594084444
 10
604.83139147
 20
-147.2390861545
 10
605.2559426588
 20
-146.5583275337
 10
605.9604199316
 20
-145.9599071497
 10
606.9005583905
 20
-145.481425956
 10
608.0172856785
 20
-145.1529486859
 10
609.2404337131
 20
-144.9951147743
 10
610.4931476049
 20
-145.0178415062
 10
611.6967147329
 20
-145.2197008776
 10
612.775510548
 20
-145.5880093218
 10
613.6617503416
 20
-146.0996246646
 10
614.2997484081
 20
-146.7224002325
 10
614.6494169827
 20
-147.4172047461
 10
614.6887851027
 20
-148.1403810826
 10
614.4153791245
 20
-148.8464894131
 10
613.8463781511
 20
-149.4911623542
 10
613.0175346063
 20
-150.0338927342
 10
611.9809277784
 20
-150.4405788072
 10
610.8016914867
 20
-150.6856669916
 10
609.5539214843
 20
-150.7537574954
 10
608.3160197495
 20
-150.6405719419
 10
607.165768201
 20
-150.3532221955
 10
606.1754413738
 20
-149.9097634978
  0
LWPOLYLINE
  5
10C
330
1F
100
AcDbEntity
  8
0
  6
Continuous
 62
     1
370
    25
100
AcDbPolyline
 90
       67
 70
   128
 43
0.0
 10
469.558927212
 20
-195.8386891869
 10
471.5269579262
 20
-194.7694890271
 10
474.800286198
 20
-193.2666140958
 10
478.2107051587
 20
-192.0280090631
 10
481.7503707353
 20
-191.0565227601
 10
485.4111415837
 20
-190.3543896366
 10
489.1845978135
 20
-189.9232246213
 10
493.0620603545
 20
-189.7640194074
 10
497.0346109187
 20
-189.877140172
 10
501.0931125123
 20
-190.2623267339
 10
505.2282304517
 20
-190.9186931515
 10
509.4304538331
 20
-191.8447297611
 10
513.690117408
 20
-193.0383066487
 10
517.9974238138
 20
-194.4966785493
 10
522.3424661077
 20
-196.2164911609
 10
526.7152505532
 20
-198.1937888592
 10
531.1057196059
 20
-200.4240237961
 10
535.5037750462
 20
-202.90206636
 10
539.8993012058
 20
-205.6222169734
 10
544.2821882337
 20
-208.5782192028
 10
548.6423553491
 20
-211.7632741484
 10
552.969774028
 20
-215.1700560816
 10
557.2544910689
 20
-218.7907292949
 10
561.4866514851
 20
-222.6169661238
 10
565.6565211721
 20
-226.6399661011
 10
569.754509296
 20
-230.8504761979
 10
573.7711903529
 20
-235.238812106
 10
577.6973258474
 20
-239.7948805122
 10
581.5238855423
 20
-244.5082023131
 10
585.2420682275
 20
-249.3679367177
 10
588.8433219638
 20
-254.3629061809
 10
592.3193637521
 20
-259.4816221131
 10
595.6621985849
 20
-264.7123113035
 10
598.8641378351
 20
-270.0429429993
 10
601.9178169396
 20
-275.4612565769
 10
604.8162123388
 20
-280.9547897413
 10
607.5526576304
 20
-286.5109071903
 10
610.1208589024
 20
-292.1168296757
 10
612.5149092096
 20
-297.7596633961
 10
614.7293021596
 20
-303.4264296531
 10
616.7589445778
 20
-309.1040947027
 10
618.5991682213
 20
-314.7795997335
 10
620.245740517
 20
-320.4398909018
 10
621.6948742958
 20
-326.0719493568
 10
622.9432365035
 20
-331.6628211834
 10
623.9879558671
 20
-337.1996471973
 10
624.8266294985
 20
-342.6696925211
 10
625.4573284215
 20
-348.0603758755
 10
625.8786020084
 20
-353.3592985159
 10
626.0894813164
 20
-358.5542727504
 10
626.0894813164
 20
-363.6333499718
 10
625.8786020084
 20
-368.5848481398
 10
625.4573284215
 20
-373.3973786499
 10
624.8266294985
 20
-378.0598725277
 10
623.9879558671
 20
-382.5616058879
 10
622.9432365035
 20
-386.8922245994
 10
621.6948742958
 20
-391.0417681005
 10
620.245740517
 20
-395.0006923082
 10
618.5991682213
 20
-398.7598915699
 10
616.7589445778
 20
-402.3107196067
 10
614.7293021596
 20
-405.6450094006
 10
612.5149092096
 20
-408.755091978
 10
610.1208589024
 20
-411.6338140495
 10
607.5526576304
 20
-414.2745544619
 10
604.8162123388
 20
-416.6712394277
 10
601.9178169396
 20
-418.8183564947
 10
599.2492728798
 20
-420.4912525786
  0
LWPOLYLINE
  5
10D
330
1F
100
AcDbEntity
  8
0
  6
Continuous
 62
     1
370
    25
100
AcDbPolyline
 90
       67
 70
   128
 43
0.0
 10
487.2370428016
 20
-185.6333302807
 10
489.2046274558
 20
-184.5643876293
 10
492.4779557277
 20
-183.061512698
 10
495.8883746883
 20
-181.8229076653
 10
499.428040265
 20
-180.8514213623
 10
503.0888111134
 20
-180.1492882388
 10
506.8622673432
 20
-179.7181232235
 10
510.7397298842
 20
-179.5589180096
 10
514.7122804483
 20
-179.6720387742
 10
518.7707820419
 20
-180.0572253361
 10
522.9058999813
 20
-180.7135917537
 10
527.1081233627
 20
-181.6396283633
 10
531.3677869377
 20
-182.8332052509
 10
535.6750933435
 20
-184.2915771516
 10
540.0201356374
 20
-186.0113897631
 10
544.3929200828
 20
-187.9886874614
 10
548.7833891355
 20
-190.2189223984
 10
553.1814445759
 20
-192.6969649622
 10
557.5769707355
 20
-195.4171155756
 10
561.9598577633
 20
-198.373117805
 10
566.3200248788
 20
-201.5581727506
 10
570.6474435577
 20
-204.9649546838
 10
574.9321605985
 20
-208.5856278971
 10
579.1643210148
 20
-212.4118647261
 10
583.3341907018
 20
-216.4348647034
 10
587.4321788257
 20
-220.6453748001
 10
591.4488598825
 20
-225.0337107082
 10
595.3749953771
 20
-229.5897791144
 10
599.2015550719
 20
-234.3031009153
 10
602.9197377572
 20
-239.1628353199
 10
606.5209914934
 20
-244.1578047831
 10
609.9970332817
 20
-249.2765207153
 10
613.3398681146
 20
-254.5072099057
 10
616.5418073647
 20
-259.8378416015
 10
619.5954864693
 20
-265.2561551791
 10
622.4938818685
 20
-270.7496883435
 10
625.23032716
 20
-276.3058057925
 10
627.798528432
 20
-281.9117282779
 10
630.1925787393
 20
-287.5545619983
 10
632.4069716893
 20
-293.2213282553
 10
634.4366141074
 20
-298.8989933049
 10
636.276837751
 20
-304.5744983357
 10
637.9234100467
 20
-310.2347895041
 10
639.3725438255
 20
-315.866847959
 10
640.6209060332
 20
-321.4577197856
 10
641.6656253967
 20
-326.9945457995
 10
642.5042990281
 20
-332.4645911234
 10
643.1349979511
 20
-337.8552744777
 10
643.556271538
 20
-343.1541971181
 10
643.7671508461
 20
-348.3491713526
 10
643.7671508461
 20
-353.4282485741
 10
643.556271538
 20
-358.3797467421
 10
643.1349979511
 20
-363.1922772522
 10
642.5042990281
 20
-367.8547711299
 10
641.6656253967
 20
-372.3565044901
 10
640.6209060332
 20
-376.6871232016
 10
639.3725438255
 20
-380.8366667028
 10
637.9234100467
 20
-384.7955909104
 10
636.276837751
 20
-388.5547901721
 10
634.4366141074
 20
-392.105618209
 10
632.4069716893
 20
-395.4399080028
 10
630.1925787393
 20
-398.5499905802
 10
627.798528432
 20
-401.4287126517
 10
625.23032716
 20
-404.0694530641
 10
622.4938818685
 20
-406.4661380299
 10
619.5954864693
 20
-408.6132550969
 10
616.9265024245
 20
-410.2864051823
  0
ENDSEC
  0
SECTION
  2
OBJECTS
  0
DICTIONARY
  5
C
330
0
100
AcDbDictionary
281
     1
  3
ACAD_GROUP
350
D
  3
ACAD_LAYOUT
350
1A
  3
ACAD_MLINESTYLE
350
17
  3
ACAD_PLOTSETTINGS
350
19
  3
ACAD_PLOTSTYLENAME
350
E
  3
ACAD_SCALELIST
350
47
  3
DWGPROPS
350
10E
  0
DICTIONARY
  5
D
102
{ACAD_REACTORS
330
C
102
}
330
C
100
AcDbDictionary
281
     1
  0
DICTIONARY
  5
1A
102
{ACAD_REACTORS
330
C
102
}
330
C
100
AcDbDictionary
281
     1
  3
Layout1
350
1E
  3
Layout2
350
26
  3
Model
350
22
  0
DICTIONARY
  5
17
102
{ACAD_REACTORS
330
C
102
}
330
C
100
AcDbDictionary
281
     1
  3
Standard
350
18
  0
DICTIONARY
  5
19
102
{ACAD_REACTORS
330
C
102
}
330
C
100
AcDbDictionary
281
     1
  0
ACDBDICTIONARYWDFLT
  5
E
102
{ACAD_REACTORS
330
C
102
}
330
C
100
AcDbDictionary
281
     1
  3
Normal
350
F
100
AcDbDictionaryWithDefault
340
F
  0
DICTIONARY
  5
47
102
{ACAD_REACTORS
330
C
102
}
330
C
100
AcDbDictionary
281
     1
  3
A0
350
48
  3
A1
350
49
  3
A2
350
4A
  3
A3
350
4B
  3
A4
350
4C
  3
A5
350
4D
  3
A6
350
4E
  3
A7
350
4F
  3
A8
350
50
  3
A9
350
51
  3
B0
350
52
  3
B1
350
53
  3
B2
350
54
  3
B3
350
55
  3
B4
350
56
  3
B5
350
57
  3
B6
350
58
  3
B7
350
59
  3
B8
350
5A
  3
B9
350
5B
  3
C0
350
5C
  3
C1
350
5D
  3
C2
350
5E
  3
C3
350
5F
  3
C4
350
60
  3
C5
350
61
  3
C6
350
62
  3
C7
350
63
  3
C8
350
64
  3
C9
350
65
  3
D0
350
66
  3
D1
350
67
  3
D2
350
68
  0
XRECORD
  5
10E
102
{ACAD_REACTORS
330
C
102
}
330
C
100
AcDbXrecord
280
     1
  1
DWGPROPS COOKIE
  2

  3

  4

  6

  7

  8
b.kav
  9

300
=
301
=
302
=
303
=
304
=
305
=
306
=
307
=
308
=
309
=
 40
0.0
 41
2460390.230092292
 42
2460390.230092488
  1

 90
        0
  0
LAYOUT
  5
1E
102
{ACAD_REACTORS
330
1A
102
}
330
1A
100
AcDbPlotSettings
  1

  2
none_device
  4

  6

 40
0.0
 41
0.0
 42
0.0
 43
0.0
 44
0.0
 45
0.0
 46
0.0
 47
0.0
 48
0.0
 49
0.0
140
0.0
141
0.0
142
1.0
143
1.0
 70
   688
 72
     1
 73
     0
 74
     5
  7

 75
    16
147
1.0
148
0.0
149
0.0
100
AcDbLayout
  1
Layout1
 70
     1
 71
     1
 10
0.0
 20
0.0
 11
420.0
 21
297.0
 12
0.0
 22
0.0
 32
0.0
 14
1.0000000000E+20
 24
1.0000000000E+20
 34
1.0000000000E+20
 15
-1.0000000000E+20
 25
-1.0000000000E+20
 35
-1.0000000000E+20
146
0.0
 13
0.0
 23
0.0
 33
0.0
 16
1.0
 26
0.0
 36
0.0
 17
0.0
 27
1.0
 37
0.0
 76
     0
330
1B
  0
LAYOUT
  5
26
102
{ACAD_REACTORS
330
1A
102
}
330
1A
100
AcDbPlotSettings
  1

  2
none_device
  4

  6

 40
0.0
 41
0.0
 42
0.0
 43
0.0
 44
0.0
 45
0.0
 46
0.0
 47
0.0
 48
0.0
 49
0.0
140
0.0
141
0.0
142
1.0
143
1.0
 70
   688
 72
     1
 73
     0
 74
     5
  7

 75
    16
147
1.0
148
0.0
149
0.0
100
AcDbLayout
  1
Layout2
 70
     1
 71
     2
 10
0.0
 20
0.0
 11
0.0
 21
0.0
 12
0.0
 22
0.0
 32
0.0
 14
0.0
 24
0.0
 34
0.0
 15
0.0
 25
0.0
 35
0.0
146
0.0
 13
0.0
 23
0.0
 33
0.0
 16
1.0
 26
0.0
 36
0.0
 17
0.0
 27
1.0
 37
0.0
 76
     0
330
23
  0
LAYOUT
  5
22
102
{ACAD_REACTORS
330
1A
102
}
330
1A
100
AcDbPlotSettings
  1

  2
none_device
  4
Letter_(8.50_x_11.00_Inches)
  6

 40
6.35
 41
6.35
 42
6.35000508
 43
6.35000508
 44
215.9
 45
279.4
 46
0.0
 47
0.0
 48
0.0
 49
0.0
140
0.0
141
0.0
142
1.0
143
1.0
 70
  1712
 72
     1
 73
     0
 74
     0
  7

 75
     0
147
1.0
148
0.0
149
0.0
100
AcDbLayout
  1
Model
 70
     1
 71
     0
 10
0.0
 20
0.0
 11
279.4
 21
215.9
 12
0.0
 22
0.0
 32
0.0
 14
0.0
 24
0.0
 34
0.0
 15
279.4
 25
215.9
 35
0.0
146
0.0
 13
0.0
 23
0.0
 33
0.0
 16
1.0
 26
0.0
 36
0.0
 17
0.0
 27
1.0
 37
0.0
 76
     0
330
1F
331
29
  0
MLINESTYLE
  5
18
102
{ACAD_REACTORS
330
17
102
}
330
17
100
AcDbMlineStyle
  2
Standard
 70
     0
  3

 62
   256
 51
90.0
 52
90.0
 71
     2
 49
0.5
 62
   256
  6
BYLAYER
 49
-0.5
 62
   256
  6
BYLAYER
  0
ACDBPLACEHOLDER
  5
F
102
{ACAD_REACTORS
330
E
102
}
330
E
  0
SCALE
  5
48
102
{ACAD_REACTORS
330
47
102
}
330
47
100
AcDbScale
 70
     0
300
1:1
140
1.0
141
1.0
290
     1
  0
SCALE
  5
49
102
{ACAD_REACTORS
330
47
102
}
330
47
100
AcDbScale
 70
     0
300
1:2
140
1.0
141
2.0
290
     0
  0
SCALE
  5
4A
102
{ACAD_REACTORS
330
47
102
}
330
47
100
AcDbScale
 70
     0
300
1:4
140
1.0
141
4.0
290
     0
  0
SCALE
  5
4B
102
{ACAD_REACTORS
330
47
102
}
330
47
100
AcDbScale
 70
     0
300
1:5
140
1.0
141
5.0
290
     0
  0
SCALE
  5
4C
102
{ACAD_REACTORS
330
47
102
}
330
47
100
AcDbScale
 70
     0
300
1:8
140
1.0
141
8.0
290
     0
  0
SCALE
  5
4D
102
{ACAD_REACTORS
330
47
102
}
330
47
100
AcDbScale
 70
     0
300
1:10
140
1.0
141
10.0
290
     0
  0
SCALE
  5
4E
102
{ACAD_REACTORS
330
47
102
}
330
47
100
AcDbScale
 70
     0
300
1:16
140
1.0
141
16.0
290
     0
  0
SCALE
  5
4F
102
{ACAD_REACTORS
330
47
102
}
330
47
100
AcDbScale
 70
     0
300
1:20
140
1.0
141
20.0
290
     0
  0
SCALE
  5
50
102
{ACAD_REACTORS
330
47
102
}
330
47
100
AcDbScale
 70
     0
300
1:30
140
1.0
141
30.0
290
     0
  0
SCALE
  5
51
102
{ACAD_REACTORS
330
47
102
}
330
47
100
AcDbScale
 70
     0
300
1:40
140
1.0
141
40.0
290
     0
  0
SCALE
  5
52
102
{ACAD_REACTORS
330
47
102
}
330
47
100
AcDbScale
 70
     0
300
1:50
140
1.0
141
50.0
290
     0
  0
SCALE
  5
53
102
{ACAD_REACTORS
330
47
102
}
330
47
100
AcDbScale
 70
     0
300
1:100
140
1.0
141
100.0
290
     0
  0
SCALE
  5
54
102
{ACAD_REACTORS
330
47
102
}
330
47
100
AcDbScale
 70
     0
300
2:1
140
2.0
141
1.0
290
     0
  0
SCALE
  5
55
102
{ACAD_REACTORS
330
47
102
}
330
47
100
AcDbScale
 70
     0
300
4:1
140
4.0
141
1.0
290
     0
  0
SCALE
  5
56
102
{ACAD_REACTORS
330
47
102
}
330
47
100
AcDbScale
 70
     0
300
8:1
140
8.0
141
1.0
290
     0
  0
SCALE
  5
57
102
{ACAD_REACTORS
330
47
102
}
330
47
100
AcDbScale
 70
     0
300
10:1
140
10.0
141
1.0
290
     0
  0
SCALE
  5
58
102
{ACAD_REACTORS
330
47
102
}
330
47
100
AcDbScale
 70
     0
300
100:1
140
100.0
141
1.0
290
     0
  0
SCALE
  5
59
102
{ACAD_REACTORS
330
47
102
}
330
47
100
AcDbScale
 70
     0
300
1/128" = 1'-0"
140
0.0078125
141
12.0
290
     0
  0
SCALE
  5
5A
102
{ACAD_REACTORS
330
47
102
}
330
47
100
AcDbScale
 70
     0
300
1/64" = 1'-0"
140
0.015625
141
12.0
290
     0
  0
SCALE
  5
5B
102
{ACAD_REACTORS
330
47
102
}
330
47
100
AcDbScale
 70
     0
300
1/32" = 1'-0"
140
0.03125
141
12.0
290
     0
  0
SCALE
  5
5C
102
{ACAD_REACTORS
330
47
102
}
330
47
100
AcDbScale
 70
     0
300
1/16" = 1'-0"
140
0.0625
141
12.0
290
     0
  0
SCALE
  5
5D
102
{ACAD_REACTORS
330
47
102
}
330
47
100
AcDbScale
 70
     0
300
3/32" = 1'-0"
140
0.09375
141
12.0
290
     0
  0
SCALE
  5
5E
102
{ACAD_REACTORS
330
47
102
}
330
47
100
AcDbScale
 70
     0
300
1/8" = 1'-0"
140
0.125
141
12.0
290
     0
  0
SCALE
  5
5F
102
{ACAD_REACTORS
330
47
102
}
330
47
100
AcDbScale
 70
     0
300
3/16" = 1'-0"
140
0.1875
141
12.0
290
     0
  0
SCALE
  5
60
102
{ACAD_REACTORS
330
47
102
}
330
47
100
AcDbScale
 70
     0
300
1/4" = 1'-0"
140
0.25
141
12.0
290
     0
  0
SCALE
  5
61
102
{ACAD_REACTORS
330
47
102
}
330
47
100
AcDbScale
 70
     0
300
3/8" = 1'-0"
140
0.375
141
12.0
290
     0
  0
SCALE
  5
62
102
{ACAD_REACTORS
330
47
102
}
330
47
100
AcDbScale
 70
     0
300
1/2" = 1'-0"
140
0.5
141
12.0
290
     0
  0
SCALE
  5
63
102
{ACAD_REACTORS
330
47
102
}
330
47
100
AcDbScale
 70
     0
300
3/4" = 1'-0"
140
0.75
141
12.0
290
     0
  0
SCALE
  5
64
102
{ACAD_REACTORS
330
47
102
}
330
47
100
AcDbScale
 70
     0
300
1" = 1'-0"
140
1.0
141
12.0
290
     0
  0
SCALE
  5
65
102
{ACAD_REACTORS
330
47
102
}
330
47
100
AcDbScale
 70
     0
300
1-1/2" = 1'-0"
140
1.5
141
12.0
290
     0
  0
SCALE
  5
66
102
{ACAD_REACTORS
330
47
102
}
330
47
100
AcDbScale
 70
     0
300
3" = 1'-0"
140
3.0
141
12.0
290
     0
  0
SCALE
  5
67
102
{ACAD_REACTORS
330
47
102
}
330
47
100
AcDbScale
 70
     0
300
6" = 1'-0"
140
6.0
141
12.0
290
     0
  0
SCALE
  5
68
102
{ACAD_REACTORS
330
47
102
}
330
47
100
AcDbScale
 70
     0
300
1'-0" = 1'-0"
140
12.0
141
12.0
290
     0
  0
ENDSEC
  0
EOF
